Oops, an error
Loading. Please wait.

To Trixie And Reptile Thanks For Everything tab

version 2
version 2

Whole song

by Chiodos
1,504 views 1 this week
no commentswrite comment
1 2 3 4 5
x 4
add to favorites
×
Save as Personal and add changes to this tab that will be seen only by you. Learn more ›
×
You can save this tab as Personal to edit and correct it or add notes. All changes will be seen only by you. Learn more »
launch autoscroll
font size
0
reset
how to read this tab
guitar tuner
edit
Autoscroll
slow
fast
+/-
esc
set tempo
stop
Author
Difficulty
Chiodos - To Trixie and Reptile, Thanks For Everything

(intro)

|----------------------------------------|
|----------------------------------------|
|--6---88---99---88---6---88---99---88---|
|--x-x-xx-x-xx-x-xx-x-x-x-xx-x-xx-x-xx---|
|--4-x-66-x-77-x-66-x-4-x-66-x-77-x-66---|
|----x----x----x----x---x----x----x------|
(comes in on second time)


|---------------------------------------------------------------------------------|
|---------------------------------------------------------------------------------|
|--13--1111---9-9---8-8-----13--1111---9-9---8-8-----13--1111---9-9---8-8---------|
|---x-x-x-x-x-x-x-x-x-x--xx--x-x-x-x---x-x---x-x--xx--x-x-x-x-x-x-x-x-x-x--xx-----|
|--11-x-9-9-x-7-7-x-6-6--xx-11-x-9-9-x-7-7-x-6-6--xx-11-x-9-9-x-7-7-x-6-6--xx-----|
|-----x-----x-----x------xx----x-----x-----x------xx----x-----x-----x------xx-----|


|-------------------------------------------------------|
|-------------------------------------------------------|
|--1616161616161616-9999999-----6---88---8--1111--------|
|---x-x-x-x-x-x-x-x-xxxxxxx-----x-x-xx-x-x--x-x---------|
|--1414141414141414-7777777-----4-x-66-x-6--9-9---------|
|---------------------------------x----x----------------|


|-------------------------------------------------------------|
|-------------------------------------------------------------|
|--1414141414141414--------------13---1111--11--1111----------|
|---x-x-x-x-x-x-x-x-44444444------x-x-x-x-x-x---x-x-----------|
|--1212121212121212-44444444-----11-x-9-9-x-9---9-9-----------|
|-------------------44444444--------x-----x-------------------|


(verse)

|--------------------------------------------------------------------|
|--------------------------------------------------------------------|
|-----6---88---99---88---99--1111--99---88------13---1111--99---88---|
|--xx-x-x-xx-x-xx-x-xx-x-xx-x-xx-x-xx-x-xx--xx--x--x-x-x-x-xx-x-xx---|
|--xx-4-x-66-x-77-x-66-x-77-x-99-x-77-x-66--xx--11-x-9-9-x-77-x-66---|
|--xx---x----x----x----x----x----x----x-----xx-----x-----x----x------|


|--------------------------------------------------------------------|
|--------------------------------------------------------------------|
|-----6---88---99---88---99--1111--99---88----6---88---99---88---8---|
|--xx-x-x-xx-x-xx-x-xx-x-xx-x-xx-x-xx-x-xx-xx-x-x-xx-x-xx-x-xx-x-x---|
|--xx-4-x-66-x-77-x-66-x-77-x-99-x-77-x-66-xx-4-x-66-x-77-x-66-x-6---|
|--xx---x----x----x----x----x----x----x----xx---x----x----x----x-----|


|-------------------------------------------------|
|-------------------------------------------------|
|-1616161616161616-1414141414141414--6~-----------|
|--x-x-x-x-x-x-x-x--x-x-x-x-x-x-x-x--6~-----------|
|-1414141414141414-1212121212121212--4~-----------|
|-------------------------------------------------|


|-------------------------------------------------|
|-------------------------------------------------|
|-1616161616161616-1616161616161616--6~-----------|
|--x-x-x-x-x-x-x-x--x-x-x-x-x-x-x-x--6~-----------|
|-1414141414141414-1414141414141414--4~-----------|
|-------------------------------------------------|


(verse cont..)

|---------------------------------------------------------------------------------------|
|---------------------------------------------------------------------------------------|
|--13-xx-1313-9-x-999-x-111111--13-xx-1313-9-x-999-x-888--13-xx-1313-9-x-999-x-111111---|
|---x-xx--x-x-x-x-xxx-x--x-x-x---x-xx--x-x-x-x-xxx-x-xxx---x-xx--x-x-x-x-xxx-x--x-x-x---|
|--11-xx-1111-7-x-777-x--9-9-9--11-xx-1111-7-x-777-x-666--11-xx-1111-7-x-777-x--9-9-9---|
|---------------------------------------------------------------------------------------|


|--------------------------------------------------------------------------------|
|--------------------------------------------------------------------------------|
|--------------------------------------------------------------------------------|
|--------4------------------------4-----------------------4----------------------|
|--4-6-7---4-7-7-7-6-6-6----4-6-7---4-7-7-7-6-6-6---4-6-7---4-7-7-7-6-6-6--------|
|--------------------------------------------------------------------------------|


(chorus)

|--------------------------------------------------------------------|
|--------------------------------------------------------------------|
|--------------------------------------------------------------------|
|--------222-222---66-666-444-222--66-666-222-222----4---4---2---2---|
|--------222-000---44-444-222-000--44-444-222-000--222-222-000-000---|
|--------222------------------------------222------------------------|


|--------------------------------------------------------------------|
|--------------------------------------------------------------------|
|--------------------------------------------------------------------|
|-66-666-222-222---66-666-444-222--66-666-222-222----4---4---2---2---|
|-44-444-222-000---44-444-222-000--44-444-222-000--222-222-000-000---|
|--------222------------------------------222------------------------|


|-----------------------------------------------------------------|
|-----------------------------------------------------------------|
|---------------------------888999--------------------------------|
|-66-666-222-222---66-666---xxxxxx--66-666-222-222--44-2~---------|
|-44-444-222-000---44-444-\-666777--44-444-222-000--22-0~---------|
|--------222-------------------------------222--------------------|


|-----------------------------------------------------------------|
|-----------------------------------------------------------------|
|-----------------------------------------------------------------|
|-66-666-222-222---66-666-444-222--66-666-222-222--44 2~----------|
|-44-444-222-000---44-444-222-000--44-444-222-000--22-0~----------|
|--------222------------------------------222---------------------|


(verse2)

|--------------------------------------------------------------------------------------------------------|
|--------------------------------------------------------------------------------------------------------|
|--1414-13131111-99-999-1414-1313-1616-1414-141414---1414-13131111-99-999--1414-1313-1616-1414-141414----|
|---x-x--x-x-x-x-xx-xxx--x-x--x-x--x-x--x-x--x-x-x----x-x--x-x-x-x-xx-xxx---x-x--x-x--x-x--x-x--x-x-x----|
|--1212-1111-9-9-77-777-1212-1111-1414-1212-121212---1212-1111-9-9-77-777--1212-1111-1414-1212-121212----|
|--------------------------------------------------------------------------------------------------------|


|---------------------------------------------------------------------|
|---------------------------------------------------------------------|
|--1313131313131313131313131313131313131313131313131313131313131313---|
|---x-x-x-x-x-x-x-x-x-x-x-x-x-x-x-x-x-x-x-x-x-x-x-x-x-x-x-x-x-x-x-x---|
|--1111111111111111111111111111111111111111111111111111111111111111---|
|---------------------------------------------------------------------|(x2)


|-------------------------------------------------------------------|
|-----------------------------9-9-10-9------------------------------|
|--9-xxxxxx-9-xxxxxx-9-xxxxxx--9-9--9--9-xxxxxx-9-xxxxxx-9-xxxxxx---|
|--x-xxxxxx-x-xxxxxx-x-xxxxxx----------x-xxxxxx-x-xxxxxx-x-xxxxxx---|
|--7-xxxxxx-7-xxxxxx-7-xxxxxx----------7-xxxxxx-7-xxxxxx-7-xxxxxx---|
|-------------------------------------------------------------------|


|-------------------------------------------------------------------|
|-------------------------------------------------------------------|
|--9-xxxxxx-9-xxxxxx-9-xxxxxx-99999999-9-xxxxxx-9-xxxxxx-9-xxxxxx---|
|--x-xxxxxx-x-xxxxxx-x-xxxxxx-xxxxxxxx-x-xxxxxx-x-xxxxxx-x-xxxxxx---|
|--7-xxxxxx-7-xxxxxx-7-xxxxxx-77777777-7-xxxxxx-7-xxxxxx-7-xxxxxx---|
|-------------------------------------------------------------------|


(chorus)

|--------------------------------------------------------------------|
|--------------------------------------------------------------------|
|--------------------------------------------------------------------|
|--------222-222---66-666-444-222--66-666-222-222----4---4---2---2---|
|--------222-000---44-444-222-000--44-444-222-000--222-222-000-000---|
|--------222------------------------------222------------------------|


|--------------------------------------------------------------------|
|--------------------------------------------------------------------|
|--------------------------------------------------------------------|
|-66-666-222-222---66-666-444-222--66-666-222-222----4---4---2---2---|
|-44-444-222-000---44-444-222-000--44-444-222-000--222-222-000-000---|
|--------222------------------------------222------------------------|


|------------------------------------------------------------|
|------------------------------------------------------------|
|---------------------------888999-------------------44------|
|-66-666-222-222---66-666---xxxxxx--66-666-222-222---44------|
|-44-444-222-000---44-444-\-666777--44-444-222-000---22------|
|--------222-------------------------------222---------------|


|------------------------------------------------------------|
|------------------------------------------------------------|
|---------------------------------------------------44-------|
|-66-666-222-222---66-666-444-222--66-666-222-222---44-------|
|-44-444-222-000---44-444-222-000--44-444-222-000---22-------|
|--------222------------------------------222----------------|

(bridge)

|--------------------------------------------------------------------|
|--2-2-2-2-2-2-2-2-2-2-2-2-2-2-2-2-2-2-2-2-2-2-2-2-4-4-4-4-4-4-4-4---|
|--------------------------------------------------------------------|
|--------------------------------------------------------------------|
|--------------------------------------------------------------------|
|--------------------------------------------------------------------|


|--0-0-0-0-0-0-0-0-0-0-0-0-0-0-0-0-0-0-0-0-0-0-0-0-0-0-0-0-0-0-0-0---|
|--------------------------------------------------------------------|
|--------------------------------------------------------------------|
|--------------------------------------------------------------------|
|--------------------------------------------------------------------|
|--------------------------------------------------------------------|

(bridge cont..)

|----------------------------------------------------------------------------------------------------|
|---5--5--5------4--4--4--4-----55555555-44444444--5--5--5------4--4--4--4-----55555555-44444444-----|
|--4--4--4--2-4-4--4--4--4--2-4-44444444-44444444-4--4--4--2-4-4--4--4--4--2-4-44444444-44444444-----|
|-7--7--7------7--7--7--7-------77777777-77777777----------------------------------------------------|
|----------------------------------------------------------------------------------------------------|
|----------------------------------------------------------------------------------------------------|(x2)


|--0-0-0-0-0-0-0-0-0-0-0-0-0-0-0-0-0-0-0-0-0-0-0-0-0-0-0-0-0-0-0-0---|
|--2-2-2-2-2-2-2-2-2-2-2-2-2-2-2-2-2-2-2-2-2-2-2-2-2-2-2-2-2-2-2-2---|
|--------------------------------------------------------------------|
|--------------------------------------------------------------------|
|--------------------------------------------------------------------|
|--------------------------------------------------------------------|(x2)


|-----------------------------------------------------------|
|-----------------------------------------------------------|
|--66666--9999-11111111-----------1111111111111111----------|
|--xxxxx--xxxx-x-x-x-x--77777777---x-x-x-x-x-x-x-x----------|
|--44444--7777-9-9-9-9--77777777-\-9-9-9-9-9-9-9-9----------|
|-----------------------77777777----------------------------|
    

|----------------------------------------------------------|
|----------------------------------------------------------|
|---66666-9999-11111111------------------------------------|
|---xxxxx-xxxx-x-x-x-x--7777777777777777-------------------|
|---44444-7777-9-9-9-9--7777777777777777-------------------|
|-----------------------7777777777777777-------------------|


(outro)

|--------------------------------------------------------------------|
|--------------------------------------------------------------------|
|--66666-----------9999-11111111------------111111119999-------------|
|--xxxxx-----------xxxx-x-x-x-x--77777777---x-x-x-x-xxxx-------------|
|--44444-----------7777-9-9-9-9--77777777-\-9-9-9-9-7777-------------|
|--------------------------------77777777----------------------------|(x2)
         (pause)

|--------------------------------------------------------------------|
|--------------------------------------------------------------------|
|---66666-----------9999-11111111------------------------------------|
|---xxxxx-----------xxxx-x-x-x-x--7777777777777777-------------------|
|---44444-----------7777-9-9-9-9--7777777777777777-------------------|
|---------------------------------7777777777777777-------------------|(x2)


|-------------------------------------------------------|
|-------------------------------------------------------|
|--66666-9999-11111111-----------1111111119999----------|
|--xxxxx-xxxx-x-x-x-x--77777777---x-x-x-x-xxxx----------|
|--44444-7777-9-9-9-9--77777777-\-9-9-9-9-7777----------|
|----------------------77777777-------------------------|
    

|-------------------------------------------------------|
|-------------------------------------------------------|
|---66666-9999-11111111---------------------------------|
|---xxxxx-xxxx-x-x-x-x--7777777777777777----------------|
|---44444-7777-9-9-9-9--7777777777777777----------------|
|-----------------------7777777777777777----------------|
(play this untill it fades)

            
            
Suggest correction
Creating personal tab
Creating personal tab
You can edit any tab online and save it as your Personal.

You can edit, replace or remove any tab part or add personal notes – all changes will be seen only by you.

Personal tabs can be accessed anytime from any device, even offline.
Learn more »
comments
print report bad tab
guest
You may want to rate the tab now too:
select rating
Wanna post a correction for this tab? Suggest correction