Oops, an error
Loading. Please wait.

Chica Ideal tab

by Chite
166 views 6 this week
no commentswrite comment
1 2 3 4 5
3 more votes to show rating
add to favorites
×
Save as Personal and add changes to this tab that will be seen only by you. Learn more ›
×
You can save this tab as Personal to edit and correct it or add notes. All changes will be seen only by you. Learn more »
launch autoscroll
font size
0
reset
how to read this tab
guitar tuner
edit
Autoscroll
slow
fast
+/-
esc
set tempo
stop

E|-------------------------------------|
B|-------------------------------------|
G|-------------------66666666-44444444-| X2
D|-22222222-66666666-66666666-44444444-|
A|-22222222-66666666-44444444-22222222-|
E|-00000000-44444444-------------------|

E5
 Y ya te he conocido
G#5
 me tienes sorprendido
C#5
 eres la chica ideal
B5
 cachorra.
E5
 Y no me he atrevido
G#5
 estoy tan confundido
C#5                       B5
 que ya no puedo ni pensar


CORO:
E5                      G#5
Solo quisiera que vinieras esta noche
     C#5                         (Riff 1)
para cantar juntos Misfits y The Clash y Dos Minutos.
E5                   G#5                   C#5
Solo quisiera que vinieras y tomarte de la mano
                       B5
y pensar que no estoy mal

Wo uo...
E|-------X6--|----------------------------------|----|
B|-----------|----------------------------------|----|
G|------2222-|-222222222222-3-4444444444444444--|-2--|
D|-2222-2222-|-222222222222-3-4444444444444444--|-2--|
A|-2222-0000-|-000000000000-1-2222222222222222--|-0--|
E|-0000------|----------------------------------|----|


E5
 Le dije a mis amigos
G#5
 que yo estaré contigo
C#5
 seguro no lo entenderán
B5
 cabrones.
E5
 Mi único motivo
G#5
 aunque yo sea un creterino
C#5                   B5
 será poderte enamorar


CORO:
E5                      G#5
Solo quisiera que vinieras esta noche
     C#5                         (Riff 1)
para cantar juntos Misfits y The Clash y A77aque y Flema.
E5                   G#5                   C#5
Solo quisiera que vinieras y tomarte de la mano
                       B5
y pensar que no estoy mal


Wo uo...
E|-------X6--|----------------------------------|----|
B|-----------|----------------------------------|----|
G|------2222-|-222222222222-3-4444444444444444--|-2--|
D|-2222-2222-|-222222222222-3-4444444444444444--|-2--|
A|-2222-0000-|-000000000000-1-2222222222222222--|-0--|
E|-0000------|----------------------------------|----|


ACORDES:
E|--X----X----X----X---|
B|--X----X----X----X---|
G|--X----X----6----4---|
D|--2----6----6----4---|
A|--2----6----4----2---|
E|--0----4----X----X---|
    E5  G#5  C#5   B5

RIFF 1: (Muy al estilo de los Ramones)
E|-------------------------|
B|-------------------------|
G|-3/4-44-444--3/4-444444--|
D|-3/4-44-444--3/4-444444--|
A|-1/2-22-222--1/2-222222--|
E|-------------------------|
Suggest correction
Creating personal tab
Creating personal tab
You can edit any tab online and save it as your Personal.

You can edit, replace or remove any tab part or add personal notes – all changes will be seen only by you.

Personal tabs can be accessed anytime from any device, even offline.
Learn more »
Give kudos to tab author, rate the tab!
1 2 3 4 5
comments
print report bad tab
guest
Wanna post a correction for this tab? Suggest correction