Oops, an error
Loading. Please wait.

Coca tab

by Chite
35 views 1 this week
no commentswrite comment
1 2 3 4 5
3 more votes to show rating
add to favorites
×
Save as Personal and add changes to this tab that will be seen only by you. Learn more ›
×
You can save this tab as Personal to edit and correct it or add notes. All changes will be seen only by you. Learn more »
launch autoscroll
font size
0
reset
how to read this tab
guitar tuner
edit
Autoscroll
slow
fast
+/-
esc
set tempo
stop
INTRO:
E|----------------------------------------------------|
B|----------------------------------------------------|
G|---------------------------9-99-777-9---------------|
D|-9-99-777-9---9-99-777-9---9-99-777-9---9-99-777-9--|
A|-9-99-777-9---9-99-777-9---7-77-555-7---9-99-777-9--|
E|-7-77-555-7---7-77-555-7----------------7-77-555-7--|

E|---------------------------------------------------|
B|---------------------------------------------------|
G|-10-11-10-11-10-11--8-9-8-9-8----------------------|
D|-10-11-10-11-10-11--8-9-8-9-8-9--9-99-777-9---XXXX-|
A|-8--9--8--9--8--9---6-7-6-7-6-9--9-99-777-9---XXXX-|
E|------------------------------7--7-77-555-7---XXXX-|

B5
El celador se cree policía el policía se cree militar
E5
el militar ha patrullado con el para
F#5
y el paraco cuida coca con las farc
B5
El billete no tiene ideología, porque paga a todos por igual
E5
los mantiene a todos satisfechos,
F#5
polvo blanco seguro nacional


B5  A5  B5     B5 A5
           Una raya,
B5  A5  B5     B5 A5
           mil balas
B5  A5  B5     B5 A5
           nuevas rutas,
B5  A5  B5     B5 A5
           que pujanza
Riff 1
un aguardiente de caña


B5
El celador se cree policía el policía se cree militar
E5
el militar trabaja para el gringo
F#5
gringo quiere puta y rayas sin pagar
B5
Bendiciones por todos recibidas, la bonanza tiene efecto electoral
E5
Reza el cura por el capo de la droga,
F#5
tendrá serie en horario estelar


B5
En las noticias, coca. En las novelas, coca
E5
En la política, coca
F#5
En las películas, coca
B5
En el jet set, coca En la vendetta, coca
E5
Consumidores, coca
F#5
Los marginados, coca
B5
coca, coca, coca, coca, coca, coca, cocaína,
E5                      F#5
coca, coca, coca, coca, coca, coca de la fina

E|--------------|
B|--------------|
G|--------------|
D|-9-99-777-9---|
A|-9-99-777-9---|
E|-7-77-555-7---|


ACORDES:
E|---X----X----X----X---|
B|---X----X----X----X---|
G|---X----X----9----11--|
D|---9----7----9----11--|
A|---9----7----7----9---|
E|---7----5----X----X---|
     B5   A5   E5  F#5

Riff 1:
E|---------------------------------------------------|
B|---------------------------------------------------|
G|-10-11-10-11-10-11--8-9-8-9-8----------------------|
D|-10-11-10-11-10-11--8-9-8-9-8-9--9-99-777-9---XXXX-|
A|-8--9--8--9--8--9---6-7-6-7-6-9--9-99-777-9---XXXX-|
E|------------------------------7--7-77-555-7---XXXX-|

            
            
Suggest correction
Creating personal tab
Creating personal tab
You can edit any tab online and save it as your Personal.

You can edit, replace or remove any tab part or add personal notes – all changes will be seen only by you.

Personal tabs can be accessed anytime from any device, even offline.
Learn more »
Give kudos to tab author, rate the tab!
1 2 3 4 5
comments
print report bad tab
guest
Wanna post a correction for this tab? Suggest correction