Oops, an error
Loading. Please wait.

El Cura Violador tab

by Chite
35 views 1 this week
no commentswrite comment
1 2 3 4 5
3 more votes to show rating
add to favorites
×
Save as Personal and add changes to this tab that will be seen only by you. Learn more ›
×
You can save this tab as Personal to edit and correct it or add notes. All changes will be seen only by you. Learn more »
launch autoscroll
font size
0
reset
how to read this tab
guitar tuner
edit
Autoscroll
slow
fast
+/-
esc
set tempo
stop
E|----------------------------------------------|
B|----------------------------------------------| X4
G|-10-XXXXXXX-10-XXXXXXX-10-XXXXXXX-14-14-14-14-|
D|-10-XXXXXXX-10-XXXXXXX-10-XXXXXXX-14-14-14-14-|
A|-8--XXXXXXX-8--XXXXXXX-8--XXXXXXX-12-12-12-12-|
E|------------------------------------------|

E|------------------------------------------|
B|------------------------------------------| X2
G|----------99999999----------6/7777-6/7777-|
D|-77777777-99999999-99999999-6/7777-6/7777-|
A|-77777777-77777777-99999999-4/5555-4/5555-|
E|-55555555----------77777777---------------|

A5                    E5
Te gusta manosear cabrón
B5          D5
El cuerpito de los niños
A5                    E5
Buscando la satisfacción
B5           D5
Que no te da Jesucristo
A5                    E5
Aplicas siempre tu sermón
B5            D5
Penetrando al monaguillo
A5                    E5
Cuando le dirás a dios
B5             D5
Que tú eres un pervertido

E|--------------|
B|--------------| X4
G|------99-7/9--|
D|-7777-99-7/9--|
A|-7777-77-5/7--|
E|-5555---------|

A5   E5 D5/E5
     En la escuela,
A5   E5 D5/E5
     en el altar
A5   E5 D5/E5
     Sale a las cinco,
A5   E5 D5/E5
     para ir a hablar.

Seguimos...
E|------------------------------------------------------|
B|------------------------------------------------------|
G|----99-77-------99-77-------99-77-------99-77---------|
D|-77-99-77-99-77-99-77-99-77-99-77-99-77-99-77-99-7----|
A|-77-77-55-99-77-77-55-99-77-77-55-99-77-77-55-99-7----|
E|-55-------77-55-------77-55-------77-55-------77-5----|

Paramos...
E|------------------------------------------------------|
B|------------------------------------------------------|
G|----99-77-------99-77-------99-77-------99-77---------|
D|-77-99-77-99-77-99-77-99-77-99-77-99-77-99-77-99-7----|
A|-77-77-55-99-77-77-55-99-77-77-55-99-77-77-55-99-7----|
E|-55-------77-55-------77-55-------77-55-------77-5----|

El cura violador...
E|---------------------------|
B|---------------------------| X2
G|---------------------------|
D|-3------3------3------7777-|
A|-3------3------3------7777-|
E|-1-11-1-1-11-1-1-11-1-5555-|
     |pm|   |pm|   |pm|

F5
Curita gran hijueputa
         A5(5)
No se te para la verga
F5
Solo con niños lo logras
             A5(5)
Pues las viejitas te apestan
F5
Sermón con cara de santo
           A5(5)
Llenas de semen las hostias
F5
La iglesia tapa tu crimen
           A5(5)
Y tú perpetúas su obra

E|------------------------------------------|
B|------------------------------------------| X2
G|----------99999999----------6/7777-6/7777-|
D|-77777777-99999999-99999999-6/7777-6/7777-|
A|-77777777-77777777-99999999-4/5555-4/5555-|
E|-55555555----------77777777---------------|


A5                    E5
Te gusta manosear cabrón
B5          D5
El cuerpito de los niños
A5                    E5
Buscando la satisfacción
B5           D5
Que no te da Jesucristo
A5
Ve a decirle al clero
E5
Que te deje pichar
B5
Armale un sindicato
D5
O mandate a castrar
A5
Curita gonorrea
E5
No tienes tu sanción
B5
Ahogas con los niños
D5                    A5
tu triste situación.


ACORDES:
E|---X----X----X----X----X----X---|
B|---X----X----X----X----X----X---|
G|---X----9----X----7----10---14--|
D|---7----9----9----7----10---14--|
A|---7----7----9----5----8----12--|
E|---5----X----7----X----X----X---|
     A5   E5   B5   D5   F5  A5(5)

            
            
Suggest correction
Creating personal tab
Creating personal tab
You can edit any tab online and save it as your Personal.

You can edit, replace or remove any tab part or add personal notes – all changes will be seen only by you.

Personal tabs can be accessed anytime from any device, even offline.
Learn more »
Give kudos to tab author, rate the tab!
1 2 3 4 5
comments
print report bad tab
guest
Wanna post a correction for this tab? Suggest correction