Oops, an error
Loading. Please wait.

Harry Plones chords

by Chite
237 views 1 this week
no commentswrite comment
1 2 3 4 5
3 more votes to show rating
add to favorites
×
Save as Personal and add changes to this tab that will be seen only by you. Learn more ›
×
You can save this tab as Personal to edit and correct it or add notes. All changes will be seen only by you. Learn more »
launch autoscroll
font size
0
reset
transpose
0
reset
simplify chords
display chords
guitar tuner
edit
Autoscroll
slow
fast
+/-
esc
set tempo
stop
Strumming
There is no strumming pattern for this song yet. and get +5 IQ
INTRO:
E|-----------------------------------------------|
B|-----------------------------------------------|
G|------1211111111111111-------1211111111111111--| X4
D|-1111-1211111111111111--1111-1211111111111111--|
A|-1111-109-9-9-9-9-9-9---1111-109-9-9-9-9-9-9---|
E|-9-9--------------------9-9--------------------|

E|-------------------------------|
B|-------------------------------|
G|-------99999----------1111111--|
D|-99999-99999-11111111-1111111--| X2
A|-99999-77777-11111111-9-9-9-9--|
E|-77777-------9-9-9-9-----------|

B5             E5
Compra un moño de una luka
C#5          F#5
en el barrio de las putas
B5       E5
esos son siete baretos
C#5          F#5
bien armados y contento
B5            E5
son las siete de la mañana
C#5          F#5
primer porro de la tanda
B5         E5
son las 12 de la noche
C#5        F#5
y ese moño aun responde

CORO:
B|--------------------|
G|------121111111111--|
D|-1111-121111111111--|
A|-1111-109-9-9-9-9---|
E|-9-9----------------|

             C#5 G5/F#5
Harry plones
            C#5 G5/F#5
que video
             C#5 G5/F#5
esta re loco
               C#5 G5/F#5
esta contento
F#5             C#5 G5/F#5
tiene hambre
F#5             C#5 G5/F#5
sopa y seco
F#5           C#5 G5/F#5
arma otro
F#5
esta contento

E|-------------------------------|
B|-------------------------------|
G|-------99999----------1111111--|
D|-99999-99999-11111111-1111111--| x2
A|-99999-77777-11111111-9-9-9-9--|
E|-77777-------9-9-9-9-----------|

B5       E5
Fu mapa ve la novela
C#5      F#5
fuma pan donde la abuela
B5          E5
fuma afuera de su casa
C#5      F#5
fu mapa se hace la paja
B5           E5
Harry Plones no le importa
C#5           F#5
si es sagrada o pal cancer
B5             E5
porque fuma en cualquier parte
C#5          F#5
en su cicla o en el parque

CORO:
B|--------------------|
G|------121111111111--|
D|-1111-121111111111--|
A|-1111-109-9-9-9-9---|
E|-9-9----------------|

              C#5 G5/F#5
Harry plones
              C#5 G5/F#5
que pizquero
            C#5 G5/F#5
pide matas
                C#5 G5/F#5
todo el tiempo
F#5            C#5 G5/F#5
donde fuma
F#5          C#5 G5/F#5
su bareto
F#5              C#5 G5/F#5
fuma incienso
F#5         B5
que pizquero


ACORDES
E|----X----X----X----X----X----|
B|----X----X----X----X----X----|
G|----X----9----X----11---12---|
D|----9----9----11---11---12---|
A|----9----7----11---9----10---|
E|----7----X----9----X----X----|
      B5   E5   C#5  F#5  G5

            
            
Suggest correction
Creating personal tab
Creating personal tab
You can edit any tab online and save it as your Personal.

You can edit, replace or remove any tab part or add personal notes – all changes will be seen only by you.

Personal tabs can be accessed anytime from any device, even offline.
Learn more »
Give kudos to tab author, rate the tab!
1 2 3 4 5
comments
print report bad tab
guest
Wanna post a correction for this tab? Suggest correction