Oops, an error
Loading. Please wait.

Horrores Nacionales tab

by Chite
36 views 1 this week
no commentswrite comment
1 2 3 4 5
3 more votes to show rating
add to favorites
×
Save as Personal and add changes to this tab that will be seen only by you. Learn more ›
×
You can save this tab as Personal to edit and correct it or add notes. All changes will be seen only by you. Learn more »
launch autoscroll
font size
0
reset
how to read this tab
guitar tuner
edit
Autoscroll
slow
fast
+/-
esc
set tempo
stop
INTRO:
E|------------------------------------------------|
B|------------------------------------------------|
G|------------------------------------------------|
D|-111111111111-99999999-77777777--11/777-11/777--| X2
A|-111111111111-99999999-77777777--11/777-11/777--|
E|-9-9-9-9-9-9--77777777-55555555--9-/555-9-/555--|


C#5  B5   A5   B5
Niño mata otro niño,
C#5  B5   A5   B5
con arma de papá
C#5  B5   A5   B5
Rata se como el miembro,
C#5  B5   A5   B5
de niño sin pañal
C#5  B5   A5   B5
Balazo por un mango,
C#5  B5   A5   B5
anciana en soledad
C#5  B5   A5   B5
Locura en corraleja,
C#5  B5   A5   B5
cuarteles y hospital

CORO:
E|---------------------|
B|---------------------|
G|-9999----------------| X2
D|-9999-7777-99999999--|
A|-7777-7777-99999999--|
E|------5555-77777777--|

E5  A5        B5
    Son horrares nacionales
E5  A5        B5
    Sangre y Morbo, Ouoh ouoh
E5  A5       B5
    Comete tus titulares
E5  A5       B5
    Comerciales, Ouoh ouoh

E|-------------------------------------------|
B|-------------------------------------------|
G|-------------------------------------------|
D|-1111111111-1111111111--77-77-7---99-99-9--| X2
A|-1111111111-1111111111--77-77-7---99-99-9--|
E|-9-9-9-9-9--9-9-9-9-9---55-55-5---77-77-7--|


C#5  B5   A5   B5
Aceite de cocina,
C#5  B5   A5   B5
en tetas pa? operar
C#5  B5   A5   B5
Aborto en el cartucho,
C#5  B5   A5   B5
un crimen pasional
C#5  B5   A5   B5
Pitbull destroza cuerpo,
C#5  B5   A5   B5
bebe en un basural
C#5  B5   A5   B5
Loco de la jeringa,
C#5  B5   A5   B5
fosas en Urabá.

CORO:
E|---------------------|
B|---------------------|
G|-9999----------------| X2
D|-9999-7777-99999999--|
A|-7777-7777-99999999--|
E|------5555-77777777--|

E5  A5        B5
    Son horrares nacionales
E5  A5        B5
    Sangre y Morbo, Ouoh ouoh
E5  A5       B5
    Comete tus titulares
E5  A5       B5
    Comerciales, Ouoh ouoh

E|-------------------------------------------|
B|-------------------------------------------|
G|-------------------------------------------|
D|-1111111111-1111111111--77-77-7---99-99-9--| X2
A|-1111111111-1111111111--77-77-7---99-99-9--|
E|-9-9-9-9-9--9-9-9-9-9---55-55-5---77-77-7--|

E|---------------X4---|----|
B|--------------------|----|
G|--------------------|----|
D|-11-11--99--77--99--|-11-|
A|-11-11--99--77--99--|-11-|
E|-9--9---77--55--77--|-9--|


ACORDES:
E|---X----X----X----X----|
B|---X----X----X----X----|
G|---X----X----X----9----|
D|---11---7----9----9----|
A|---11---7----9----7----|
E|---9----5----7----X----|
    C#5   A5   B5   E5

            
            
Suggest correction
Creating personal tab
Creating personal tab
You can edit any tab online and save it as your Personal.

You can edit, replace or remove any tab part or add personal notes – all changes will be seen only by you.

Personal tabs can be accessed anytime from any device, even offline.
Learn more »
Give kudos to tab author, rate the tab!
1 2 3 4 5
comments
print report bad tab
guest
Wanna post a correction for this tab? Suggest correction