Oops, an error
Loading. Please wait.

La Fastidiosa tab

by Chite
26 views 1 this week
no commentswrite comment
1 2 3 4 5
3 more votes to show rating
add to favorites
×
Save as Personal and add changes to this tab that will be seen only by you. Learn more ›
×
You can save this tab as Personal to edit and correct it or add notes. All changes will be seen only by you. Learn more »
launch autoscroll
font size
0
reset
how to read this tab
guitar tuner
edit
Autoscroll
slow
fast
+/-
esc
set tempo
stop
D5 G5 A5
      Ahí viene
D5 G5 A5
      La gorda
D5 G5 A5
      Horrible
D5 G5 A5
      Y cachorra

E|-------------------------------------------X2---|
B|------------------------------------------------|
G|-7777/9-777-------------------------------------|
D|-7777/9-777--7777/9-777--5555/7-555--7777/9-777-|
A|-5555/7-555--7777/9-777--5555/7-555--7777/9-777-|
E|-------------5555/7-555--3333/5-333--5555/7-555-|

D5 G5 A5
      La gorda
D5 G5 A5
      María
D5 G5 A5
      Me jode
D5 G5 A5
      LA vida

E|-------------------------------------------X2---|
B|------------------------------------------------|
G|-7777/9-777-------------------------------------|
D|-7777/9-777--7777/9-777--5555/7-555--7777/9-777-|
A|-5555/7-555--7777/9-777--5555/7-555--7777/9-777-|
E|-------------5555/7-555--3333/5-333--5555/7-555-|

D5          B5        A5       G5
Llega doña perdida diciendo tonterías
D5                 B5       A5               G5
No entiende que es muy fea que no le quiero hablar
D5            B5        A5      G5
Cuando menos se piensa llega esa porquería
D5      B5         A5    G5
Y un complejo le voy a crear

E|-------------------------------------------X2---|
B|------------------------------------------------|
G|-7777/9-777-------------------------------------|
D|-7777/9-777--7777/9-777--5555/7-555--7777/9-777-|
A|-5555/7-555--7777/9-777--5555/7-555--7777/9-777-|
E|-------------5555/7-555--3333/5-333--5555/7-555-|

D5          B5        A5       G5
Llega doña perdida diciendo tonterías
D5                 B5       A5               G5
No entiende que es muy fea que no le quiero hablar
D5            B5       A5      G5
Cuando menos se piensa llega esa porquería
D5       B5        A5    G5   D5
Y un complejo le voy a crear

E|------------------X3-|-------------------|
B|---------------------|-------------------|
G|-7777----------------|-7777--------------|
D|-7777-9999-5555-7777-|-7777-9999-5-5-7-7-|
A|-5555-9999-5555-7777-|-5555-9999-5-5-7-7-|
E|------7777-3333-5555-|------7777-3-3-5-5-|

E|------------------X3-|-------------------|----|
B|---------------------|-------------------|----|
G|-7777----------------|-7777--------------|-7--|
D|-7777-9999-5555-7777-|-7777-9999-5-5-7-7-|-7--|
A|-5555-9999-5555-7777-|-5555-9999-5-5-7-7-|-5--|
E|------7777-3333-5555-|------7777-3-3-5-5-|----|

ACORDES:
E|---x---x---x---x---|
B|---x---x---x---x---|
G|---7---x---x---x---|
D|---7---7---5---9---|
A|---5---7---5---9---|
E|---x---5---3---7---|
     D5  A5  G5  B5

            
            
Suggest correction
Creating personal tab
Creating personal tab
You can edit any tab online and save it as your Personal.

You can edit, replace or remove any tab part or add personal notes – all changes will be seen only by you.

Personal tabs can be accessed anytime from any device, even offline.
Learn more »
Give kudos to tab author, rate the tab!
1 2 3 4 5
comments
print report bad tab
guest
Wanna post a correction for this tab? Suggest correction