Oops, an error
Loading. Please wait.

La Punkera De Mi Barrio chords

by Chite
161 views 1 this week
no commentswrite comment
1 2 3 4 5
3 more votes to show rating
add to favorites
×
Save as Personal and add changes to this tab that will be seen only by you. Learn more ›
×
You can save this tab as Personal to edit and correct it or add notes. All changes will be seen only by you. Learn more »
launch autoscroll
font size
0
reset
transpose
0
reset
simplify chords
display chords
guitar tuner
edit
Autoscroll
slow
fast
+/-
esc
set tempo
stop
Strumming
There is no strumming pattern for this song yet. and get +5 IQ
E|------------------------------------------|
B|------------------------------------------|
G|------------3-3333333-7-7777777-5-5555555-|
D|-3-33333333-3-3333333-7-7777777-5-5555555-|
A|-3-33333333-1-3333333-5-5555555-3-3333333-|
E|-1-11111111-------------------------------|

F5
Cuando estube enamorado
A#5
de la punkerade mi barrio
D5
me pase toda la noche
C5
escuchando los Ramones
F5
No pensaba en otra cosa
A#5
que en su linda cresta loca
D5
la quiero, la amo
C5
y en la noches aun la extraño

E|------------------------------------------|
B|------------------------------------------|
G|------------333333333-777777777-555555555-|
D|-3333333333-333333333-777777777-555555555-| X2
A|-3333333333-111111111-555555555-333333333-|
E|-1111111111-------------------------------|

F5
Mientas mas me ilusionaba
A#5
ella mas me despreciaba
D5
me escupia y me empujaba
C5
mi rudeza no alcanzaba


A#5 C5  D5
HUO HUO HUO (x4)

F5
Por las noches la llamaba
A#5
y ella siempre me colgaba
D5
los poemas que le enviaba
C5
a ella siempre le apestaban
F5
con la punkera de mi barrio
A#5
no hay mujer del calendario
D5
la quiero, la admiro
C5
ya no soy un pervertido


A#5 C5  D5
HUO HUO HUO (x4)

E|------------------------------------------|---|
B|------------------------------------------|---|
G|------------3-3333333-7-7777777-5-5555555-|-7-|
D|-3-33333333-3-3333333-7-7777777-5-5555555-|-7-|
A|-3-33333333-1-3333333-5-5555555-3-3333333-|-5-|
E|-1-11111111-------------------------------|---|


ACORDES:
E|---X----X----X----X---|
B|---X----X----X----X---|
G|---X----3----7----5---|
D|---3----3----7----5---|
A|---3----1----5----3---|
E|---1----X----X----X---|
     F5  A#5   D5   C5

            
            
Suggest correction
Creating personal tab
Creating personal tab
You can edit any tab online and save it as your Personal.

You can edit, replace or remove any tab part or add personal notes – all changes will be seen only by you.

Personal tabs can be accessed anytime from any device, even offline.
Learn more »
Give kudos to tab author, rate the tab!
1 2 3 4 5
comments
print report bad tab
guest
Wanna post a correction for this tab? Suggest correction