Oops, an error
Loading. Please wait.

Mariachi Luchador tab

by Chite
41 views 1 this week
no commentswrite comment
1 2 3 4 5
3 more votes to show rating
add to favorites
×
Save as Personal and add changes to this tab that will be seen only by you. Learn more ›
×
You can save this tab as Personal to edit and correct it or add notes. All changes will be seen only by you. Learn more »
launch autoscroll
font size
0
reset
how to read this tab
guitar tuner
edit
Autoscroll
slow
fast
+/-
esc
set tempo
stop
INTRO:
E|----------------------------------------|
B|----------------------------------------|
G|----------88888888----------1010101010--|
D|-88888888-88888888-88888888-1010101010--|
A|-88888888-66666666-88888888-8-8-8-8-8---|
E|-66666666----------66666666-------------|

E|----------------------------------------|
B|----------------------------------------|
G|----------88888888----------101010------|
D|-88888888-88888888-88888888-1010108888--|
A|-88888888-66666666-88888888-8-8-8-8888--|
E|-66666666----------66666666-------6666--|

A#5
Soy un borracho de fierta
      D#5
despechado y sin amor
A#5
fui un estudiante vago
      F5
de cantinas y punk rock
A#5
la vida de boemio
       D#5
sin ni mierda me dejo
A#5
de mariachi y lucha libre
      F5
encontre mi solucion

E|----------------------|
B|----------------------|
G|---8--10101010101010--| X4
D|-8-8--10101010101010--|
A|-8-6--8-8-8-8-8-8-9---|
E|-6--------------------|

CORO:
D#5                      A#5
La vida me ha escupido a mi
       D#5
me ha puesto de mariachi
       F5
me ha puesto en el ring
D#5                 A#5
miestras tenga alcohol y a mis cedulas
D#5                   A#5
con este disfraz sere feliz


A#5
Peleando en el Olaya
     D#5
Polikarpa y el rincon
A#5
cantando en la caracas
       F5
y las fiestas por rincon
A#5
cayendo a la lona
     D#5
vencido por un cabron
A#5
cantadno a vicente
       F5
sin mayor satisfaccion

E|----------------------|
B|----------------------|
G|---8--10101010101010--| X4
D|-8-8--10101010101010--|
A|-8-6--8-8-8-8-8-8-9---|
E|-6--------------------|


CORO:
D#5                      A#5
La vida me ha escupido a mi
       D#5
me ha puesto de mariachi
       F5
me ha puesto en el ring
D#5                 A#5
miestras tenga alcohol y a mis cedulas
D#5                   A#5
con este disfraz sere feliz
D#5                      A#5
La vida me ha escupido a mi
       D#5
me ha puesto de mariachi
       F5
me ha puesto en el ring
D#5                 A#5
miestras tenga alcohol y a mis cedulas
D#5                   A#5
con este disfraz sere feliz
A#5
sere feliz, sere feliz, sere feliz

ACORDES:
E|-----X-----X-----X-----|
B|-----X-----X-----X-----|
G|-----X-----8-----10----|
D|-----8-----8-----10----|
A|-----8-----6-----8-----|
E|-----6-----X-----X-----|
      A#5   D#5    F5

            
            
Suggest correction
Creating personal tab
Creating personal tab
You can edit any tab online and save it as your Personal.

You can edit, replace or remove any tab part or add personal notes – all changes will be seen only by you.

Personal tabs can be accessed anytime from any device, even offline.
Learn more »
Give kudos to tab author, rate the tab!
1 2 3 4 5
comments
print report bad tab
guest
Wanna post a correction for this tab? Suggest correction