Oops, an error
Loading. Please wait.

Mi Novia Ha Muerto tab

by Chite
17 views 1 this week
no commentswrite comment
1 2 3 4 5
3 more votes to show rating
add to favorites
×
Save as Personal and add changes to this tab that will be seen only by you. Learn more ›
×
You can save this tab as Personal to edit and correct it or add notes. All changes will be seen only by you. Learn more »
launch autoscroll
font size
0
reset
how to read this tab
guitar tuner
edit
Autoscroll
slow
fast
+/-
esc
set tempo
stop
INTRO:
E|------------------|
B|------------------|
G|-7----------------|
D|-7---9----5----7--| X2
A|-5---9----5----7--|
E|-----7----3----5--|

E|--------------X4---|---------------X4--|
B|-------------------|-------------------|
G|-77777777----------|-------------------|
D|-77777777-99999999-|-55555555-77777777-|
A|-55555555-99999999-|-55555555-77777777-|
E|----------77777777-|-33333333-55555555-|

D5       B5    D5         B5
En la protesta mi novia ha muerto
D5       B5    D5         B5
Ando de luto desde su entierro
G5     A5      G5    A5
Metida está en un cajón
G5         A5    G5   A5
Con ella está mi corazón

E|-------------------------------X2----|
B|-------------------------------------|
G|-77777777----------------------------|
D|-77777777-77777777-55555555-77777777-|
A|-55555555-77777777-55555555-77777777-|
E|----------55555555-33333333-55555555-|


CORO:
D5             A5            G5           A5
Ahora el cementerio se ha quedado con mi amor
D5          A5         G5         A5
Ahora lloro solo, escuchando los Ramones
D5              A5     G5         A5
Ya no hay más fiestas, solo hay licor
D5         A5    G5           A5
Solo su recuerdo ha inspirado mi punk rock

E|---------------------------------------------------------------------|
B|---------------------------------------------------------------------|
G|-77777777--------------------------77777777--------------------------|
D|-77777777-99999999-77777777-5-4-2--77777777-99999999-6/77777-6/77777-| X2
A|-55555555-99999999-77777777-5-4-2--55555555-99999999-6/77777-6/77777-|
E|----------77777777-55555555-3-2-0-----------77777777-4/55555-4/55555-|


D5       B5     D5         B5
Miro tus fotos, quiero tu cuerpo
D5      B5    D5          B5
Nos uniremos, cuando esté muerto
G5      A5     G5     A5
Yo te amaré, te besaré
G5        A5    G5    A5
La tumba seis visitaré

E|-------------------------------X2----|
B|-------------------------------------|
G|-77777777----------------------------|
D|-77777777-77777777-55555555-77777777-|
A|-55555555-77777777-55555555-77777777-|
E|----------55555555-33333333-55555555-|

CORO:
D5             A5            G5           A5
Ahora el cementerio se ha quedado con mi amor
D5          A5         G5         A5
Ahora lloro solo, escuchando los Ramones
D5              A5     G5         A5
Ya no hay más fiestas, solo hay licor
D5         A5    G5           A5            D5
Solo su recuerdo ha inspirado mi punk rock


ACORDES:
E|---x----x----x----x---|
B|---x----x----x----x---|
G|---7----x----x----x---|
D|---7----7----5----9---|
A|---5----7----5----9---|
E|---x----5----3----7---|
     D5   A5   G5   B5
Suggest correction
Creating personal tab
Creating personal tab
You can edit any tab online and save it as your Personal.

You can edit, replace or remove any tab part or add personal notes – all changes will be seen only by you.

Personal tabs can be accessed anytime from any device, even offline.
Learn more »
Give kudos to tab author, rate the tab!
1 2 3 4 5
comments
print report bad tab
guest
Wanna post a correction for this tab? Suggest correction