Oops, an error
Loading. Please wait.

Motel Europa tab

by Chite
6 views 1 this week
no commentswrite comment
1 2 3 4 5
3 more votes to show rating
add to favorites
×
Save as Personal and add changes to this tab that will be seen only by you. Learn more ›
×
You can save this tab as Personal to edit and correct it or add notes. All changes will be seen only by you. Learn more »
launch autoscroll
font size
0
reset
how to read this tab
guitar tuner
edit
Autoscroll
slow
fast
+/-
esc
set tempo
stop
E|-----------------------------------------|
B|-----------------------------------------|
G|-7-77------------------------------------| X2
D|-7-77-77-7-5-5555555-9-9999999-7-7777777-|
A|-5-55-77-7-5-5555555-9-9999999-7-7777777-|
E|------55-5-3-3333333-7-7777777-5-5555555-|

(Toda esta parte con palm mute)
E|-------------------------------------|
B|-------------------------------------|
G|-77777777----------------------------|
D|-77777777-99999999-55555555-77777777-|
A|-55555555-99999999-55555555-77777777-|
E|----------77777777-33333333-55555555-|

D5                        B5
No era una noche más como todas
                     G5
con su amiga estaban solas
              A5
no sabía cómo iba a terminar.
D5                     B5
Entre ella y yo algo pasaba
                    G5
y con la noche mejoraba
                 A5
y a un motel nos fuimos a amar.

(Toda esta parte con palm mute)
E|-------------------------------------|
B|-------------------------------------|
G|-77777777----------------------------|
D|-77777777-99999999-55555555-77777777-|
A|-55555555-99999999-55555555-77777777-|
E|----------77777777-33333333-55555555-|


CORO:
D5  B5
Ou, Uo
G5       A5
En el Motel Europa
D5  B5
Ou, Uo
G5       A5
Yo le quité su ropa
D5  B5
Ou, Uo
G5      A5
Empezaré a extrañarla
D5  B5
Ou, Uo
G5       A5
No volveré a encontrarla, No.

E|-------------------------------------------------------------------|
B|-------------------------------------------------------------------|
G|-7-77777-7-77777---------------------------------------------------|
D|-7-77777-7-77777-9-99999-9-99999-5-55555-5-555555-7-777777-7777777-|
A|-5-55555-5-55555-9-99999-9-99999-5-55555-5-555555-7-777777-7777777-|
E|-----------------7-77777-7-77777-3-33333-3-333333-5-555555-5555555-|


D5                      B5
La habitación estaba en obra
                     G5
no había porno ni emisora
               A5
ella no quería terminar.
D5                 B5
Desperté y la cama sola
                      G5
no había restos de su ropa
                   A5
la cuenta yo tendría que pagar.

(Toda esta parte con palm mute)
E|-------------------------------------|
B|-------------------------------------|
G|-77777777----------------------------|
D|-77777777-99999999-55555555-77777777-|
A|-55555555-99999999-55555555-77777777-|
E|----------77777777-33333333-55555555-|

CORO:
D5  B5
Ou, Uo
G5       A5
En el Motel Europa
D5  B5
Ou, Uo
G5       A5
Yo le quité su ropa
D5  B5
Ou, Uo
G5       A5
Empezaré a extrañarla
D5  B5
Ou, Uo
G5       A5
No volveré a encontrarla, No.

FINAL:
E|---|
B|---|
G|-7-|
D|-7-|
A|-5-|
E|-5-|

ACORDES:
E|---X----X----X----X---|
B|---X----X----X----X---|
G|---7----X----X----X---|
D|---7----9----5----7---|
A|---5----9----5----7---|
E|---X----7----3----5---|
     D5   B5   G5   A5

            
            
Suggest correction
Creating personal tab
Creating personal tab
You can edit any tab online and save it as your Personal.

You can edit, replace or remove any tab part or add personal notes – all changes will be seen only by you.

Personal tabs can be accessed anytime from any device, even offline.
Learn more »
Give kudos to tab author, rate the tab!
1 2 3 4 5
comments
print report bad tab
guest
Wanna post a correction for this tab? Suggest correction