Oops, an error
Loading. Please wait.

Por Confiar En El Punk tab

by Chite
67 views 1 this week
no commentswrite comment
1 2 3 4 5
3 more votes to show rating
add to favorites
×
Save as Personal and add changes to this tab that will be seen only by you. Learn more ›
×
You can save this tab as Personal to edit and correct it or add notes. All changes will be seen only by you. Learn more »
launch autoscroll
font size
0
reset
how to read this tab
guitar tuner
edit
Autoscroll
slow
fast
+/-
esc
set tempo
stop
INTRO:
E|--------------------------------------------|
B|--------------------------------------------|
G|-66666666666666-11-9----------11-9----------|
D|-66666666666666-11-9-99999999-11-9-99999999-| X4
A|-44444444444444-9--7-99999999-9--7-99999999-|
E|---------------------77777777------77777777-|

C#5
Nunca tendré, vida social normal.
F#5 E5   B5   F#5 E5   B5
Por confiar.. en el Punk.
C#5
No soy un yupi, ni un yanqui popular,
F#5 E5   B5   F#5 E5   B5
Por confiar... en el Punk.


E5             C#5        B5
Porque yo nena canto punk rock,
E5             C#5        B5
porque yo nena bailo punk-rock
E5             C#5        B5
porque esto nena es negro rock & roll,
E5      C#5         B5
dice tu madre soy lo peor.

E|-------------------------|-------------------------|
B|-8b-6-8b-6-8b-6-8b-------|-8b-6-8b-6-8b-6-8b-------|
G|-------------------6--4--|-------------------6--8--|
D|-------------------------|-------------------------|
A|-------------------------|-------------------------|
E|-------------------X3----|-------------------------|

C#5
Cerveza, amigos, tienda o algún bar,
F#5 E5   B5    F#5 E5   B5
por confiar... en el Punk,


C#5
Me gustas nena, no podrás soportar,
F#5 E5   B5   F#5 E5   B5
Por confiar...en el punk.


E5             C#5        B5
Porque yo nena canto punk rock,
E5             C#5        B5
porque yo nena bailo punk-rock
E5             C#5        B5
porque esto nena es negro rock & roll,
E5      C#5         B5
dice tu madre soy lo peor.

E|--------------------------------------|
B|--------------------------------------|
G|-99999999-99999999-66666666-----------|
D|-99999999-99999999-66666666-99999999--| X4
A|-77777777-77777777-44444444-99999999--|
E|----------------------------77777777--|

E5                       C#5         B5
Por Confiar, por confir, por confiar en el Punk
E5                       C#5         B5         E5
Por Confiar, por confir, por confiar en el Punk

ACORDES:
E|---X----X----X----X---|
B|---X----X----X----X---|
G|---6----X----9----11--|
D|---6----9----9----11--| b = bend
A|---4----9----7----9---|
E|---X----7----X----X---|
    C#5   B5   E5  F#5

            
            
Suggest correction
Creating personal tab
Creating personal tab
You can edit any tab online and save it as your Personal.

You can edit, replace or remove any tab part or add personal notes – all changes will be seen only by you.

Personal tabs can be accessed anytime from any device, even offline.
Learn more »
Give kudos to tab author, rate the tab!
1 2 3 4 5
comments
print report bad tab
guest
Wanna post a correction for this tab? Suggest correction