Oops, an error
Loading. Please wait.

Wasted Tab

198 views 3 this week
no commentswrite comment
1 2 3 4 5
please rate
add to favorites
launch autoscroll
font size
0
reset
how to read this tab
guitar tuner
Tab Pro tools
  • play this tab
  • loop segment
  • change instrument
  • show fretboard
  • metronome
×
Best way to learn
"Wasted"
Autoscroll
slow
fast
+/-
esc
set tempo
stop
-------------------------------------------------------------------------------
			   WASTED - Choke
-------------------------------------------------------------------------------

Tabbed by : Vince
Email : creativemind@live.ca

I know this isn't 100 % perfect: Choke plays it with two guitars.
Exact number of strums isn't indicated, it's just to give an idea

intro:
(00:00 to 00:08)
e|--------------------------------------------------------------------------|
B|--------------------------------------------------------------------------|
G|-10------------------10-------------------10------------------------------|
D|-10--7-7--5-5-5-5-5--10--7-7--10-9-7-5-7--10--7-7-------------------------|
A|--8--7-7--5-5-5-5-5---8--7-7---------------8--7-7--(verse comes in)-------|
E|-----5-5--3-3-3-3-3------5-5---8-7-5-3-5------5-5-------------------------|

verse: (eighteen years old...)
(00:08 to 00:17)
e|---------------------------------------------------------------------------|
B|---------------------------------------------------------------------------|
G|--5-5--7-7--9-9--7-7-7-----------------------------------------------------|
D|--7-7--7-7--7-7--7-7-7--10-10-10-------------------------------------------|
A|------------------------10-10-10--10-10-10---------------------------------|
E|-------------------------8--8--8---7--7--7---------------------------------|

verse part 2: (it's still so distant...)
(00:17 to 00:25)
e|---------------------------------------------------------------------------|
B|---------------------------------------------------------------------------|
G|--------------10-10----12-12------5-4-----5-4------------------------------|
D|-10-10--9--9----------------------5-4-5---5-4-3----------------------------|
A|---------------8--8----10-10------3-2-5---3-2-3----------------------------|
E|--8--8--7--7--------------------------3-------1----------------------------|

e|---------------------------------------------------------------------------|
B|---------------------------------------------------------------------------|
G|-----------------10-10--12-12----5-4----4-5-4-5----------------------------|
D|-10-10--9--9---------------------5-4-5--4-5-4-5----------------------------|
A|------------------8--8--10-10----3-2-5--2-3-2-3----------------------------|
E|--8--8--7--7-------------------------3-------------------------------------|

Fill 1:
(00:25 to 00:33)
e|---------------------------------------------------------------------------|
B|---------------------------------------------------------------------------|
G|---------------------------------------------------------------------------|
D|-14-14-14--10--10--7-7--10-10--9-7--4/5-4/5--------------------------------|
A|-12-12-12---8---8--5-5---8--8--7-5--2/3-2/3--7--5--------------------------|
E|---------------------------------------------5--3--------------------------|

e|---------------------------------------------------------------------------|
B|---------------------------------------------------------------------------|
G|---------------------------------------------------------------------------|
D|-14-14-14--10--10--7-7--10-10--9-7-------------10--------------------------|
A|-12-12-12---8---8--5-5---8--8--7-5--7--9--10----8--------------------------|
E|------------------------------------5--7---8-------------------------------|

verse from 00:33 to 00:42

then verse part 2- different:
(00:42 to 00:51)
e|---------------------------------------------------------------------------|
B|---------------------------------------------------------------------------|
G|--------------10-10----12-12------5-4-----5-4------------------------------|
D|-10-10--9--9----------------------5-4-5---5-4-3----------------------------|
A|---------------8--8----10-10------3-2-5---3-2-3----------------------------|
E|--8--8--7--7--------------------------3-------1----------------------------|

e|---------------------------------------------------------------------------|
B|---------------------------------------------------------------------------|
G|-----------------10-10--12-12-----5-4-----5-5----9-------------------------|
D|-10-10--9--9----------------------5-4-5---5-5----9-------------------------|
A|------------------8--8--10-10-----3-2-5---3-3----7-------------------------|
E|--8--8--7--7--------------------------3------------------------------------|

bridge:
(00:51 to 01:08)
				      
e|------------------------------------/ PM  /-------------------------------|
B|---------------------------------------------------------------------------|
G|-----------12-12-12-12--10-10-10-10----------------------------------------|
D|--7-7-7-7--12-12-12-12--10-10-10-10---5-5----3-----------------------------|
A|--7-7-7-7--10-10-10-10---8--8--8--8---5-5----3-----------------------------|
E|--5-5-5-5-----------------------------3-3----1-----------------------------|

e|---------------------------------------------------------------------------|
B|---------------------------------------------------------------------------|
G|-----------12-12-12-12--10-10-10-10--10-10-10-10---------------------------|
D|--7-7-7-7--12-12-12-12--10-10-10-10--10-10-10-10---------------------------|
A|--7-7-7-7--10-10-10-10---8--8--8--8---8--8--8--8---------------------------|
E|--5-5-5-5------------------------------------------------------------------|

e|------------------------------------/ PM  /-------------------------------|
B|---------------------------------------------------------------------------|
G|-----------12-12-12-12--10-10-10-10----------------------------------------|
D|--7-7-7-7--12-12-12-12--10-10-10-10---5-5----3-----------------------------|
A|--7-7-7-7--10-10-10-10---8--8--8--8---5-5----3-----------------------------|
E|--5-5-5-5-----------------------------3-3----1-----------------------------|

e|---------------------------------------------------------------------------|
B|---------------------------------------------------------------------------|
G|-----------12-12-12-12--10-10-10-10--10-10-10-10---------------------------|
D|--7-7-7-7--12-12-12-12--10-10-10-10--10-10-10-10---7-7---------------------|
A|--7-7-7-7--10-10-10-10---8--8--8--8---8--8--8--8---7-7---------------------|
E|--5-5-5-5------------------------------------------5-5---------------------|

Then there is the bass part and this:
(01:17 to 01:27)
[so you face...]
e|---------------------------------------------------------------------------|
B|---------------------------------------------------------------------------|
G|-----------------------------------4/5--4/5---------------9--7-------------|
D|-7----10----5-------------7----10--4/5--4/5--7--5---7--5--9--7-----------7-|
A|-7----10----5---10/9/7----7----10--2/3--2/3--7--5---7--5--7--5-3-3-3-3---7-|
E|-5-----8----3----8/7/5----5-----8------------5--3---5--3-----------------5-|

bridge from to (01:28 to 1:46)

===============================================================================

comments
We did not receive enough feedback on this tab! Please rate:
print report bad tab
1 2 3 4 5
I want to post or [tab]
guest
You may want to rate the tab now too:
select rating
Please do not post tabs as comments. Select "correction" instead!