Oops, an error
Loading. Please wait.

You Are The Sunshine Of My Life Tab

1,084 views 1 this week
no commentswrite comment
1 2 3 4 5
3 more votes to show rating
add to favorites
launch autoscroll
font size
0
reset
how to read this tab
guitar tuner
Autoscroll
slow
fast
+/-
esc
set tempo
stop
Help us to improve Ultimate-Guitar.com Take our survey!
×
Author
Difficulty
novice
Song is very cool to play. Enjoy!

Rhythm is easy. You can figure it out by yourself.

Verse
e----------------------------------------------|
B----------------------------------------------|
G-9-9-9-9-----------------9-9-9-9--------------|
D-9-9-9-9-8-8-8-8-9-9-9-9-9-9-9-9-5-5-5-5-5-5--|
A-7-7-7-7-8-8-8-8-9-9-9-9-7-7-7-7-5-5-5-5-5-5--|
E---------6-6-6-6-7-7-7-7---------3-3-3-3-3-3--|

Chorus
e---------------------------------------------------------------------|
B---------------------------------------------------------------------|
G-9-9-9-9/7-7-7-7/5-5-5-5/7-7-7-7/8-8-8-8/5-5-5-5/10-10-10-10/7-7-7-7-|
D-9-9-9-9/7-7-7-7/5-5-5-5/7-7-7-7/8-8-8-8/5-5-5-5/10-10-10-10/7-7-7-7-|
A-7-7-7-7/5-5-5-5/3-3-3-3/5-5-5-5/6-6-6-6/3-3-3-3/8--8--8--8/ 5-5-5-5-|
E---------------------------------------------------------------------|

Post-Chorus
e------------------------------------|
B------------------------------------|
G------------------------------------|
D-3-3-3-5-5-5-7-7-7-7-8-8-8-10-10-10-|
A-3-3-3-5-5-5-7-7-7-7-8-8-8-10-10-10-|
E-1-1-1-3-3-3-5-5-5-5-6-6-6-8--8--8--|

Then

e----------------------------|
B----------------------------|
G----------------------------|
D-5-5-5-7-7-7-8-8-8-10-10-10-|    x2
A-5-5-5-7-7-7-8-8-8-10-10-10-|
E-3-3-3-5-5-5-6-6-6-8--8--8--|


Verse
Chorus
Verse
Chorus
Post-chorus
Chorus

That`s all the song!
Suggest correction
Give kudos to tab author, rate the tab!
1 2 3 4 5
comments
print report bad tab
guest
You may want to rate the tab now too:
select rating
Wanna post a correction for this tab? Suggest correction