Oops, an error
Loading. Please wait.

500 Channels Bass Tab

version 3
version 3

Whole song

Interactive

6,817 views 9 this week
no commentswrite comment
1 2 3 4 5
accurate
x 4
add to favorites
launch autoscroll
font size
0
reset
guitar tuner
Autoscroll
slow
fast
+/-
esc
set tempo
stop
Help us to improve Ultimate-Guitar.com Take our survey!
×
Difficulty
intermediate
-------------------------------------------------------------------------------
			     500 CHANNELS - Choking Victim
-------------------------------------------------------------------------------

Tabbed By : crackheadtrent
e-mail: nomadspirit@hotmail.com

Tuning: Flat (Tune everything down a semitone)

Ok, i've seen so many wrong tabs for this that say '100%' correct and they're just not.
know LoC and this is how you play it. It might not look right, and it might not SOUND
because the bass on the recording has a funny tone to it which makes it hard to hear. 
play it in a cover band or something and it sounds spot on, trust me. Happy playing everyone!


Intro/Main Riff
===============

G|---------------------------------------------------------------------------|
D|----532--------------------------------------------------------------------|
A|3333---3-----532------75----3--5-------------------------------------------|
E|---------3333---3-5555--85-1--3--------------------------------------------|

That basically doesn't change at all throughout the song. In other parts, just play the
notes for the sequence (C, G, A, F). If you can't figure them out (?!?) here they are.

G|---------------------------------------------------------------------------|
D|---------------------------------------------------------------------------|
A|3-33-333-------------------------------------------------------------------|
E|---------3-33-333-5-55-555-1-11-111----------------------------------------|

There you go, done. Any enquiries or whatnot e-mail me. Safe yeh.
===============================================================================
Suggest correction
comments
print report bad tab
guest
You may want to rate the tab now too:
select rating
Wanna post a correction for this tab? Suggest correction