Oops, an error
Loading. Please wait.

Crack Rock Steady Bass Tab

version 1
version 1

Whole song

Interactive

5,094 views 9 this week
1 commentread comment
1 2 3 4 5
accurate
x 5
add to favorites
launch autoscroll
font size
0
reset
guitar tuner
Tab Pro tools
  • play this tab
  • loop segment
  • change instrument
  • show fretboard
  • metronome
Autoscroll
slow
fast
+/-
esc
set tempo
stop
Band: Choking Victim
Album: No Gods/No Managers
Song: Crack Rock Steady
Tabbed by: Alex (bassist for Outright - Follow3Way@aol.com)

Intro/Verse/Chorus:
G:----------------------------------------------------
D:--------------47-47-47-47---------------------------
A:-47-47-47-47-5--5--5--5---47-47-47-47---------------
E:5--5--5--5---------------5--5--5--5--047-047-047-047
comments
print report bad tab
1 comment total.
0 reply
NJAtrophy wrote on February 18 2013, 05:13 pm

you need to be tuned down a half step to Eb Ab Db F#, otherwise its the wrong notes or you could play:

G:----------------------------------------------------
D:--------------36-36-36-36---------------58-58--58-68
A:-36-36-36-36-4--4--4--4---36-36-36-36--6--6--6--6---
E:4--4--4--4---------------4--4--4--4-----------------

I want to post or [tab]
guest
You may want to rate the tab now too:
select rating
Please do not post tabs as comments. Select "correction" instead!