Oops, an error
Loading. Please wait.

Crack Rock Steady Bass Tab

version 2
version 2

Whole song

Interactive

3,757 views 1 this week
3 commentsread comments
1 2 3 4 5
accurate
x 6
add to favorites
launch autoscroll
font size
0
reset
guitar tuner
Autoscroll
slow
fast
+/-
esc
set tempo
stop
Help us to improve Ultimate-Guitar.com Take our survey!
×
Author
Difficulty
novice
-------------------------------------------------------------------------------
		Crack Rock Steady - Choking Victim
-------------------------------------------------------------------------------

Tabbed By : will townsend
e-mail: meteorofwar@hotmail.co.uk

Tuning:standard
this is my firt tab so it may not be completely accurate but it sounds right to me
G|---------------------------------------------------------------------------|
D|-0----4----7----0----4----7----0----4----7----0----4----7------------------|
A|---------------------------------------------------------------------------|
E|---------------------------------------------------------------------------|

G|---------------------------------------------------------------------------|
D|---------------------------------------------------------------------------|
A|-0----4----7----0----4----7----0----4----7----7----4----0------------------|
E|---------------------------------------------------------------------------|

G|---------------------------------------------------------------------------|
D|-0----4----7----0----4----7----0----4----7----0----4----7------------------|
A|---------------------------------------------------------------------------|
E|---------------------------------------------------------------------------|

G|-0----4----7----0----4----7----0----4----7----0----4----7------------------|
D|---------------------------------------------------------------------------|
A|---------------------------------------------------------------------------|
E|---------------------------------------------------------------------------|

just repeat that throughout the song and it sounds good
Suggest correction
comments
print report bad tab
3 comments total.
0 reply
JelloBeans 61 wrote on December 10 2008, 01:33 pm

everythings upside down, should look like this:


G|---------------------------------------------------------------------------|
D|---------------------------------------------------------------------------|
A|-0----4----7----0----4----7----0----4----7----0----4----7------------------|
E|---------------------------------------------------------------------------|

G|---------------------------------------------------------------------------|
D|-0----4----7----0----4----7----0----4----7----7----4----0------------------|
A|---------------------------------------------------------------------------|
E|---------------------------------------------------------------------------|

G|---------------------------------------------------------------------------|
D|---------------------------------------------------------------------------|
A|-0----4----7----0----4----7----0----4----7----0----4----7------------------|
E|---------------------------------------------------------------------------|

G|---------------------------------------------------------------------------|
D|---------------------------------------------------------------------------|
A|---------------------------------------------------------------------------|
E|-0----4----7----0----4----7----0----4----7----0----4----7------------------|

0 reply
JelloBeans 61 wrote on December 10 2008, 01:35 pm

damn spaces disappeared

G|---------------------------------------------------------------------------|
D|---------------------------------------------------------------------------|
A|-0----4----7----0----4----7----0----4----7----0----4----7------------------|
E|---------------------------------------------------------------------------|

G|---------------------------------------------------------------------------|
D|-0----4----7----0----4----7----0----4----7----7----4----0------------------|
A|---------------------------------------------------------------------------|
E|---------------------------------------------------------------------------|

G|---------------------------------------------------------------------------|
D|---------------------------------------------------------------------------|
A|-0----4----7----0----4----7----0----4----7----0----4----7------------------|
E|---------------------------------------------------------------------------|

G|---------------------------------------------------------------------------|
D|---------------------------------------------------------------------------|
A|---------------------------------------------------------------------------|
E|-0----4----7----0----4----7----0----4----7----0----4----7------------------|

0 reply
NJAtrophy 259 wrote on February 18 2013, 05:13 pm

you need to be tuned down a half step to Eb Ab Db F#, otherwise its the wrong notes or you could play:

G:----------------------------------------------------
D:--------------36-36-36-36---------------58-58--58-68
A:-36-36-36-36-4--4--4--4---36-36-36-36--6--6--6--6---
E:4--4--4--4---------------4--4--4--4-----------------

guest
You may want to rate the tab now too:
select rating
Please do not post tabs as comments. Select "correction" instead!