Oops, an error
Loading. Please wait.

Five Finger Discount Bass

version 2
version 2

Whole song

Interactive

82 views 1 this week
no commentswrite comment
1 2 3 4 5
3 more votes to show rating
add to favorites
×
Save as Personal and add changes to this tab that will be seen only by you. Learn more ›
launch autoscroll
font size
0
reset
guitar tuner
Autoscroll
slow
fast
+/-
esc
set tempo
stop
Please Rate!

[Verse]
G|--------------3------------|x10
D|----------3-6---6-3--------|
A|----3-6-4-----------6-4-3--|
E|--4-----------------------6|

 [Chorus]
G|---------------------------|x2
D|---------------------------|
A|-----3~-----4-4-4-4-4-4-4--|
E|--4~-----1~----------------|

 [Verse]
G|--------------3------------|x4
D|----------3-6---6-3--------|
A|----3-6-4-----------6-4-3--|
E|--4-----------------------6|

 [Chorus]
G|---------------------------|x4
D|---------------------------|
A|-----3~-----4-4-4-4-4-4-4--|
E|--4~-----1~----------------|

 [Verse]
G|--------------3------------|x4
D|----------3-6---6-3--------|
A|----3-6-4-----------6-4-3--|
E|--4-----------------------6|

 [Bridge] (I'm not 100% on this part but it sounds pretty close)
G|-------------6-------------8|x4
D|------6-------------8-------|
A|---------4-4-----------6-6--|
E|--4-4-----------6-6---------|

 [Chorus]
G|---------------------------|x3
D|---------------------------|
A|-----3~-----4-4-4-4-4-4-4--|
E|--4~-----1~----------------|

 [Outro]
G|----------------------|x2 
D|----------------------|   
A|-----3(8x)-----4(8x)--|   
E|--4(8x)-----1(8x)-----|   

G|-------------------|
D|-------------------|
A|4~--3~--1~--0~-----|
E|---------------4~--|


************************************

| ~  Hold note 

************************************
Suggest correction
Give kudos to tab author, rate the tab!
1 2 3 4 5
comments
print report bad tab
guest
You may want to rate the tab now too:
select rating
Wanna post a correction for this tab? Suggest correction