Oops, an error
Loading. Please wait.

Hate Your State Bass Tab

924 views 6 this week
no commentswrite comment
1 2 3 4 5
please rate
add to favorites
launch autoscroll
font size
0
reset
guitar tuner
Autoscroll
slow
fast
+/-
esc
set tempo
stop
Help us to improve Ultimate-Guitar.com Take our survey!
×
Author
Difficulty
Hate Your State
Intro
G---------------------|
D---------------------|
A-6---6---6---6---6---| 
E---8---8---8---8---8-| 

Pre Verse
G--------------------|
D-----8---6----5---3-| 
A-6666-666-3333-333--| 
E--------------------|

Verse  
G-------------------|
D------8-6------5-3-|
A-6666-----3333-----|
E-------------------|

Chorus
G-------------|
D-------------|
A-666668------|
E-------88888-|

Intro x2
Pre Verse x2
Verse x3
Chorusx8
Pre Verse x3
Verse x3
Chorusx8
Pre Verse x2
Chorusx8



I think the order is right, the note are for sure though
Suggest correction
Give kudos to tab author, rate the tab!
1 2 3 4 5
comments
print report bad tab
guest
You may want to rate the tab now too:
select rating
Wanna post a correction for this tab? Suggest correction