Oops, an error
Loading. Please wait.

Infested Bass Tab

version 5
version 5

Interactive

449 views 1 this week
no commentswrite comment
1 2 3 4 5
2 more votes to show rating
add to favorites
launch autoscroll
font size
0
reset
guitar tuner
Autoscroll
slow
fast
+/-
esc
set tempo
stop
Help us to improve Ultimate-Guitar.com Take our survey!
×
Author
Difficulty
intermediate
There isn't a single completely correct tab for the song so here it is, 100% correct:

A)
G]--------------------------------------------------------------------|
D]--------------------------------------------------------------------|
A]7-7-7-7-7-7-7-7-----------------------------------------------------|
E]----------------5-5-5-5-5-5-5-5-9-9-9-9-9-9-9-9-7-7-7-7-7-7-7-7-----|

B)
G]--------------------------------------------------------------------|
D]--------------------------------------------------------------------|
A]--------------------------------------------------------------------|
E]0-0-0-0-0-0-0-0-5-5-5-5-5-5-5-5-9-9-9-9-9-9-9-9-7-7-7-7-7-7-7-7-----|

C)
G]--------------------------------------------------------------------|
D]--------------------------------------------------------------------|
A]--------------------------------------------------------------------|
E]0-0-0-0-0-0-0-0-5-5-5-5-5-5-5-5-9-9-9-9-9-9-9-9--7--5--4--2---------|

D)
G]--------------------------------------------------------------------|
D]-----9-9-9-9--------------------------------------------------------|
A]7--7---------------9-------------11-11-11-11-----9------------------|
E]-------------5--5-----5--9-9-9-9-------------7-7---7-5-4-0----------|

E)
G]--------------------------------------------------------------------|
D]-----9-9-9-9--------------------------------------------------------|
A]7--7---------------9-------------11-11-11-11------------------------|
E]-------------5--5-----5--9-9-9-9-------------7--5--4--2--0----------|

F)
G]--------------------------------------------------------------------|
D]--------------------------------------------------------------------|
A]7-7-----------------------------------------------------------------|
E]----------------5-5-------------9-9--9-9--------7-7-7-7-7-7-7-7-----|

G)
G]--------------------------------------------------------------------|
D]--------------------------------------------------------------------|
A]7~------------------------------------------------------------------|
E]----------------5~--------------9~--------------7~/19---------------|

H)
G]--------------------------------------------------------------------|
D]--------------------------------------------------------------------|
A]--------------------------------------------------------------------|
E]0~--------------5~--------------9~--------------7~------------------|

I)
G]--------------------------------------------------------------------|
D]--------------------------------------------------------------------|
A]7~------------------------------------------------------------------|
E]----------------5~--------------9~--------------7~------------------|

J)
G]--------------------------------------------------------------------|
D]--------------------------------------------------------------------|
A]--------------------------------------------------------------------|
E]0~--------------5~--------------9~--------------7~/19---------------|

K)
G]--------------------------------------------------------------------|
D]--------------------------------------------------------------------|
A]--------------------------------------------------------------------|
E]0~--------------5~--------------9~--------------7--9--10--11--------|


Order:
A x 1
B x 1
A x 2
A x 1
C x 1
D x 4
A x 1
C x 1
D x 1
E x 1
(drop out, only the guitar ska-chords)
F x 1
A x 2
G x 1
H x 1
I x 1
J x 1
K x 1
D x 1
E x 1
B x 2 (the beat is slightly different, can't really describe it in tab)
A x 4

There you go! Minute details an all! Tabbed by Keenan.
Suggest correction
Give kudos to tab author, rate the tab!
1 2 3 4 5
comments
print report bad tab
guest
You may want to rate the tab now too:
select rating
Wanna post a correction for this tab? Suggest correction