Oops, an error
Loading. Please wait.

Money Bass Tab

version 1
version 1

Whole song

3,718 views 3 this week
1 commentread comment
1 2 3 4 5
please rate
add to favorites
launch autoscroll
font size
0
reset
guitar tuner
Autoscroll
slow
fast
+/-
esc
set tempo
stop
Help us to improve Ultimate-Guitar.com Take our survey!
×
Author
Shza 90
-------------------------------------------------------------------------------
			     MONEY - Choking Victim
-------------------------------------------------------------------------------

Tabbed By : Shza "The Fucking Pirate" Mack AKA Wonko The Sane
e-mail: nobody2213@hotmail.com

Update: Sorry scabies and gentlemen, I did this really quickly so the Chorus was wrong. 
I moved everything up 1 fret and now it sounds better but it could still be one more up... you decide.

Tuning: EADG
Intro/Verse:
G|---------------------------------------|
D|-----7-----8---------------------------| (x8)
A|-/55---/66-----------------------------|
E|---------------------------------------|

Chorus:
G|---------------------------------------|
D|---------------------------------------| (x2)
A|-------------------77777777------------|
E|-44444444-55555555----------77777777---|

Verse II:
G|-------------------------|
D|-----7-----8----7--------|
A|-/55---/66---/55--/666---|
E|-------------------------|

Death Metal-y Heavy Part:
G|------------------|
D|------------------|
A|------------------|
E|-0000000000000000-|

Pre-Chorus or Some Shit:
G|-----------------------------------------------------------------------------------|
D|-----------------------------------------------------------------------------------|
A|----------7~-----------------------------------------------------------------------|
E|-4~--5~------7~--------------------------------------------------------------------|

Outro:
G|---------------------------------------------------------------------------------------|
D|---------------------------------------------------------------------------------------|
A|---------------------------------------------------------------------------------------|
E|-7-5-4-2-00000000~---------------------------------------------------------------------|

| /  slide up
| ~  hold that shit!

That's all, Dick.
Suggest correction
What's this?
You can suggest a correction to this tab. Community and Mods will review your correction and vote to approve or reject it.
comments
We did not receive enough feedback on this tab! Please rate:
print report bad tab
1 2 3 4 5
1 comment total.
+1 reply
Mr. Thingy 424 wrote on June 18 2009, 02:49 pm

The intro/ verse should be

G|----------------------|
D|------9-9-------10-10-|
A|-2/7-7-----2/8-8-------|
8E|---------------------|

guest
You may want to rate the tab now too:
select rating
Please do not post tabs as comments. Select "correction" instead!