Oops, an error
Loading. Please wait.

Bubble Dream Tab

version 1
version 1

Intro

  • ver 1 new
    This version has shifted the notes to different fr... Show more

Interactive

by Chon
25 views 25 this week
no commentswrite comment
1 2 3 4 5
3 more votes to show rating
add to favorites
launch autoscroll
font size
0
reset
how to read this tab
guitar tuner
Autoscroll
slow
fast
+/-
esc
set tempo
stop
Help us to improve Ultimate-Guitar.com Take our survey!
×
Author
Difficulty
novice
About this tab version
This version has shifted the notes to different fretboard locations so as to sound better and be easier to play when played on an acoustic guitar. Was this info helpful? Yes No
-------------------------------------------------------------------------------
                             Bubble Dream Intro - Chon
-------------------------------------------------------------------------------
Tabbed by: ADC2000/DT
E-mail: dyrathorvaldsson@gmail.com

Tuning: Standard EADGBe

e|------------2--3--2-----0----------------------------------|
B|----------5----------3--------------------------------3----|
G|----2--4-------------------2--4--2--0--------------2-----4-|
D|---------------------------------------4--0----------------|
A|-3-------------------------------------------2--3----------|
E|-----------------------------------------------------------|

e|------------------------0------|
B|---------------------0---------|
G|-------0--------5/7------------|
D|----------------5/7------------|
A|-0--3-----3--0-----------------|
E|----------------5/7------------|

e|------------2--3--2-----0----------------------------------|
B|----------5----------3--------------------------------3----|
G|----2--4-------------------2--4--2--0--------------2-----4-|
D|---------------------------------------4--0----------------|
A|-3-------------------------------------------2--3----------|
E|-----------------------------------------------------------|

e|--------------------------------|
B|--------------------------------|
G|-------0-----------------2--0---|
D|----------------5--7--5---------|
A|-0--3-----3--0------------------|
E|--------------------------------|


***********************************
| /   Slide up
***********************************
Suggest correction
Give kudos to tab author, rate the tab!
1 2 3 4 5
comments
print report bad tab
guest
You may want to rate the tab now too:
select rating
Wanna post a correction for this tab? Suggest correction