Oops, an error
Loading. Please wait.

Cant Wait bass

version 1
version 1

Whole song

Interactive

by CHON
4,982 views 45 this week
no commentswrite comment
1 2 3 4 5
x 7
add to favorites
×
Save as Personal and add changes to this tab that will be seen only by you. Learn more ›
×
You can save this tab as Personal to edit and correct it or add notes. All changes will be seen only by you. Learn more »
launch autoscroll
font size
0
reset
guitar tuner
edit
Autoscroll
slow
fast
+/-
esc
set tempo
stop
Author
Difficulty
intermediate
-------------------------------------------------------------------------------
                             Can't Wait - Chon
-------------------------------------------------------------------------------
Tabbed by: Margetts.john5
E-mail: margetts.john5@gmail.com

Based off of: https://www.youtube.com/watch?v=to-Nyt3wvbE

Left out some of the the harmonics, but they're not that necessary.
Watch the video for timings.

Please rate and comment! 

Tuning: Standard

[Verse 1]
G|--------------------------------------------7-------7--------------------|
D|----------------------------------------------9-7-9---9-7\---------------|
A|----5--------------5--------------5---------------------------5----------|
E|-5-----3--3-0---5-----3--3-0---5-----3--5h7----------------5-----3--3-0--|

[Chorus]
G|---------------------------------------------------------|
D|------------------------------------/9-7-\0/7------------|
A|----5-----7-----5------------5-----7----------5~---------|
E|-5-----7-----5-----7-5-3\--5-----7----------------7-5-3--|

G|-----------------------------------------------------|
D|---------------------------------/9-7-\0/7-----------|
A|-5-----7-----5------------5-----7----------5~--------|
E|----7-----5-----7-5-3--5-----7----------------7-5-3--|

[Verse 2]
G|--------------------------------------------7-----9-7--------------------|
D|----------------------------------------------9-7-----9-7\---------------|
A|----5--------------5--------------5---------------------------5----------|
E|-5-----3--3-0---5-----3--3-0---5-----3--5h7----------------5-----3--3-0--|

Solo Bit:
G|--------7---7------------------7---7------------4--------7--7--------------|
D|----5/7-------5----5--5----5/7-------9~--7-7\--------5/7------7\----5--5---|
A|------------------------3------------------------------------------------3-|
E|-3---------------3--------------------------------3---------------3--------|

G|-----7--7---------------------------------------------7--7-----------4-----|
D|-5/7------9~-10-10-9-7-5\---------7-7-----5--5----5/7------9~--7-7---------|
A|-----------------------------------------------3---------------------------|
E|----------------------------3\-3-3-------3------------------------------3--|

G|-----7--7------------------7---7-------------------------------------------|
D|-5/7------7----5--5----5/7--------9~-10-10-9---9--9--10--10--9--9--10--10--|
A|--------------------3------------------------------------------------------|
E|-------------3---------------------------------7--7--8---8---7--7--8---8---|

[Verse 3]
G|-------------------------------|
D|-------------------------------|
A|-----5--------------5----------|
E|--5-----3--3-0---5-----3--3-0--|


*******************************************

| /  slide up
| \  slide down
| h  hammer-on
| p  pull-off
| ~  vibrato
| +  harmonic
| x  Mute note

*******************************************

            
            
Suggest correction
Creating personal tab
Creating personal tab
You can edit any tab online and save it as your Personal.

You can edit, replace or remove any tab part or add personal notes – all changes will be seen only by you.

Personal tabs can be accessed anytime from any device, even offline.
Learn more »
comments
print report bad tab
guest
You may want to rate the tab now too:
select rating
Wanna post a correction for this tab? Suggest correction