Oops, an error
Loading. Please wait.

Potion tab

version 1
version 1

Whole song

Interactive

by CHON
15,711 views 42 this week
no commentswrite comment
1 2 3 4 5
x 9
add to favorites
×
Save as Personal and add changes to this tab that will be seen only by you. Learn more ›
×
You can save this tab as Personal to edit and correct it or add notes. All changes will be seen only by you. Learn more »
launch autoscroll
font size
0
reset
how to read this tab
guitar tuner
edit
Autoscroll
slow
fast
+/-
esc
set tempo
stop
Author
Difficulty
intermediate
POTION
CHON

The song is played with hybrid picking. If you want to know exactly how to play the picking,
listen to the song carefully or watch the videos below. The song is in 6/8.

Live show : https://www.youtube.com/watch?v=xlUBuq1MAc0

     E  E  E  E  E  E     E   E   E  E  E    E
e|--11-----------------|--9---------------------|
B|------9-----------9--|-----12-----------------|
G|---------8-----8-----|-------------9----------|
D|------------9--------|---------13-------------|
A|---------------------|----------------9h--11--|
E|---0-----------------|--9---------------------|

    ^                       ^
    E   E  E  E   E   E     Q.     E  E  E
e|---------------11p--9--|--7------7--------|
B|------------9----------|--7---------7-----|
G|---------8-------------|--6------------6--|
D|--6h--9----------------|--x---------------|
A|--x--------------------|--x---------------|
E|--0--------------------|--4---------------|

    ^       ^          ^
    Q    E  Q    E     H.              E  E  E  E  E  E
e|------------------|---------------|--4-----------------|
B|---------------7--|---------------|-----7-----------7--|
G|--8-------6-------|--4------------|--------4-----4-----|
D|--6h---9--4-------|--4------------|-----------6--------|
A|--7-------6-------|--x------------|--------------------|
E|------------------|--4------------|--4-----------------|

    ^                       ^
    E   E   E  E   E  E     E   E  E  E   E   E
e|--9--------------------|---------------11p--9--|
B|-----12----------------|------------9----------|
G|-------------9---------|---------8-------------|
D|---------13------------|--6h--9----------------|
A|----------------11--9--|--x--------------------|
E|--9--------------------|--0--------------------|

    ^                  ^        ^           ^
    Q.     E  E  E     E  E  E  E  E  E     H.
e|--7---------7-----|--------6--------7--|--6------------|
B|--7------------7--|--------------7-----|--4------------|
G|--x---------------|--8--------6--------|--4------------|
D|--x---------------|--6h-9-----4--------|--x------------|
A|--x---------------|--7--------6--------|--x------------|
E|--5------7--------|--------------------|--4------------|

     E  E  E  E  E  E     E   E   E  E  E    E
e|--11-----------------|--9---------------------|
B|------9-----------9--|-----12-----------------|
G|---------8-----8-----|-------------9----------|
D|------------9--------|---------13-------------|
A|---------------------|----------------9h--11--|
E|---0-----------------|--9---------------------|

    ^                       ^
    E   E  E  E   E   E     Q.     E  E  E
e|---------------11p--9--|--7------7--------|
B|------------9----------|--7---------7-----|
G|---------8-------------|--6------------6--|
D|--6h--9----------------|--x---------------|
A|--x--------------------|--x---------------|
E|--0--------------------|--4---------------|

    ^       ^          ^
    Q    E  Q    E     H.              E  E  E  E  E  E
e|------------------|---------------|--4-----------------|
B|---------------7--|--4------------|-----7-----------7--|
G|--8-------6-------|--4------------|--------4-----4-----|
D|--6h---9--4-------|--x------------|-----------6--------|
A|--7-------6-------|--x------------|--------------------|
E|------------------|--4------------|--4-----------------|

    ^                        ^
    E   E   E  E   E   E     E   E  E  E   E   E
e|--9---------------------|---------------11p--9--|
B|-----12-----------------|------------9----------|
G|-------------9----------|---------8-------------|
D|---------13-------------|-----------------------|
A|----------------11p--9--|--9--11----------------|
E|--9---------------------|--0--------------------|

    ^                  ^        ^           ^
    Q.     E  E  E     E  E  E  E  E  E     H.
e|--7---------7-----|--------6--------7--|--6------------|
B|--7------------7--|--------------7-----|--4------------|
G|--x---------------|--8--------6--------|--4------------|
D|--x---------------|--6h-9-----4--------|--x------------|
A|--x---------------|--7--------6--------|--x------------|
E|--5------7--------|--------------------|--4------------|


*****************************

E - 8th
Q - quarter
H - half

x - dead note
h - hammer on
p - pull off
^ - brush up

*****************************
Suggest correction
Creating personal tab
Creating personal tab
You can edit any tab online and save it as your Personal.

You can edit, replace or remove any tab part or add personal notes – all changes will be seen only by you.

Personal tabs can be accessed anytime from any device, even offline.
Learn more »
comments
print report bad tab
guest
You may want to rate the tab now too:
select rating
Wanna post a correction for this tab? Suggest correction