Oops, an error
Loading. Please wait.

Stranger Tab

2,258 views 6 this week
no commentswrite comment
1 2 3 4 5
excellent!
x 4
add to favorites
launch autoscroll
font size
0
reset
how to read this tab
guitar tuner
Tab Pro tools
  • play this tab
  • loop segment
  • change instrument
  • show fretboard
  • metronome
Autoscroll
slow
fast
+/-
esc
set tempo
stop
Contributor
Difficulty
intermediate
Band:   Chris August
Song:   Stranger
http://www.chrisaugustmusic.com/
Tabbed By:  Ayo

Tuning: Standard
Capo:   6th Fret

==========================================================
Chris plays this with one regular & one cut capo. But this is written so that all you 
need is one regular capo on the 6th fret.

Intro
E|-------------------------------------------|
B|-----3-----3--3-----3--3-----3--3----------|
G|-----2-----2--2-----2--2-----0--0----------|
D|----------------------------------------0--|
A|--2-----2--------0-----------------0h2-----|
E|--------------------------3----------------|

E|-------------------------------------------------------------------|
B|-----3-----3--3----------3------------------------3-----3--3----3--|
G|-----2-----2--2-----------------------------------2-----2--2----2--|
D|--------------------2/4-----4\2p0--------0-------------------------|
A|--2-----2--------0--------------------2-----2--2-----2-------------|
E|-----------------------------------3-------------------------------|

Verse
E|-----------------------------------|
B|-----3-----3--3-----3--3-----3--3--|
G|-----2-----2--2-----2--2-----0--0--|  x8
D|-----------------------------------|
A|--2-----2--------0-----------------|
E|--------------------------3--------|

Prechorus
E|--------------------------------------------------------------------------------------|
B|-----0-----0-----3-----3-----0-----0-----3-----3-----0-----0-----3-----3-----0--0--5--|
G|-----0-----0-----2-----2-----0-----0-----2-----2-----0-----0-----2-----2-----0--0--0--|
D|-----------------------------------------------------------------------------------0--|
A|-----------------------------------------------------------------------------------3--|
E|--0-----0-----2-----2-----3-----3-----2-----2-----0-----0-----2-----2-----3---3-------|

Chorus
E|--------------------------------------     |-----------------------------------|
B|-----3--------3--------3--------3-----     |-----3--------3--------3--------3--|
G|-----2--------2--------2--------2-----     |-----2--------2--------0--------0--|
D|--0-----0----------------------------- x2  |-----------------------------------|
A|-----------------------------0-----0--     |--2-----2--0-----0-----------------|
E|-----------2-----2--3-----3-----------     |--------------------3-----3--4-----|

play fast
E|-----------------------------|
B|-----3-----3-----3-----3--5--|
G|-----2-----2-----0-----0--0--|
D|--------------------------0--|
A|--------------------2-----3--|
E|--0-----2-----3--------------|

Back to Verse
E|-------------------------------------------------------------------|
B|-----3-----3--3----------3------------------------3-----3--3----3--|
G|-----2-----2--2-----------------------------------2-----2--2----2--|
D|--------------------2/4-----4\2p0--------0-------------------------|
A|--2-----2--------0--------------------2-----2--2-----2-------------|
E|-----------------------------------3-------------------------------|

Verse 2
E|-----------------------------------|
B|-----3-----3--3-----3--3-----3--3--|
G|-----2-----2--2-----2--2-----0--0--|  x8
D|-----------------------------------|
A|--2-----2--------0-----------------|
E|--------------------------3--------|


Prechorus
E|--------------------------------------------------------------------------------------|
B|-----0-----0-----3-----3-----0-----0-----3-----3-----0-----0-----3-----3-----0--0--5--|
G|-----0-----0-----2-----2-----0-----0-----2-----2-----0-----0-----2-----2-----0--0--0--|
D|-----------------------------------------------------------------------------------0--|
A|-----------------------------------------------------------------------------------3--|
E|--0-----0-----2-----2-----3-----3-----2-----2-----0-----0-----2-----2-----3---3-------|

Chorus
E|--------------------------------------     |-----------------------------------|
B|-----3--------3--------3--------3-----     |-----3--------3--------3--------3--|
G|-----2--------2--------2--------2-----     |-----2--------2--------0--------0--|
D|--0-----0----------------------------- x2  |-----------------------------------|
A|-----------------------------0-----0--     |--2-----2--0-----0-----------------|
E|-----------2-----2--3-----3-----------     |--------------------3-----3--4-----|

play fast
E|-----------------------------|
B|-----3-----3-----3-----3--5--|
G|-----2-----2-----0-----0--0--|
D|--------------------------0--|
A|--------------------2-----3--|
E|--0-----2-----3--------------|

Bridge
E|-------------------------    ----|
B|-----0-----3-----3-----3-    -5--|
G|-----0-----2-----0-----0-    -0--|
D|------------------------- x3 -0--|
A|--------------------0----    -3--|
E|--0-----2-----3----------    ----|

Chorus
E|--------------------------------------     |-----------------------------------|
B|-----3--------3--------3--------3-----     |-----3--------3--------3--------3--|
G|-----2--------2--------2--------2-----     |-----2--------2--------0--------0--|
D|--0-----0----------------------------- x2  |-----------------------------------|
A|-----------------------------0-----0--     |--2-----2--0-----0-----------------|
E|-----------2-----2--3-----3-----------     |--------------------3-----3--4-----|

play fast
E|-----------------------------|
B|-----3-----3-----3-----3--5--|
G|-----2-----2-----0-----0--0--|
D|--------------------------0--| x3
A|--------------------2-----3--|
E|--0-----2-----3--------------|

==========================================================

Don't forget to rate!!
comments
print report bad tab
I want to post or [tab]
guest
You may want to rate the tab now too:
select rating
Please do not post tabs as comments. Select "correction" instead!