Oops, an error
Loading. Please wait.

All Night Long bass

version 1
version 1

Whole song

349 views 1 this week
no commentswrite comment
1 2 3 4 5
3 more votes to show rating
add to favorites
×
Save as Personal and add changes to this tab that will be seen only by you. Learn more ›
×
You can save this tab as Personal to edit and correct it or add notes. All changes will be seen only by you. Learn more »
launch autoscroll
font size
0
reset
guitar tuner
edit
Autoscroll
slow
fast
+/-
esc
set tempo
stop
Author
Difficulty
Tabbed by: 6METAL6BASSIST6
E-mail: petergriffinav@gmail.com

Tuning: EADG


G|------------------------------------------------------------------------------------------------|
D|5-----------------------3-----------5---3-------------------------------3-----------5---3-------|
A|--------------------5-----------------------5-----------------------5-----------------------5---|
E|------------------------------------------------3-----------------------------------------------|

G|------------------------------------------------------------------------------------------------|
D|------------------------3-----------5---3-------------------------------3-----------5---3-------|
A|--------------------5-----------------------5-----------------------5-----------------------5---|
E|3-----------------------------------------------3-----------------------------------------------|

G|------------------------3-----------5---3-------------------------------3---------/-5---3-------|
D|--------------------5-----------------------5-----------------------5-----------------------5---|
A|3-----------------------------------------------3-----------------------------------------------|
E|------------------------------------------------------------------------------------------------|

G|------------------------------------------------------------------------------------------------|
D|------------------------3-----------5---3-------------------------------3-----------5---3-------|
A|--------------------5-----------------------5-----------------------5-----------------------5-/-|
E|3-----------------------------------------------3-----------------------------------------------|

G|----------------------------12------------------------------------------3-----------5---3-------|
D|--------------------7---10--------/-12--10--7-\---------------------5-----------------------5---|
A|5-----------------------------------------------3-----------------------------------------------|
E|------------------------------------------------------------------------------------------------|

G|------------------------------------------------------------------------------------------------|
D|------------------------3-----------5---3-------------------------------------------------------|
A|--------------------5-----------------------5---------------------------3---4---5---3---4---5---|
E|3-----------------------------------------------3-----------------------------------------------|


0:52

G|------------------------------------------------------------------------------------------------|
D|------------------------3-----------5---3-------------------------------3-----------5---3-------| x2
A|--------------------5-----------------------5-----------------------5-----------------------5---|
E|3-----------------------------------------------3-----------------------------------------------|

G|------------------------3-----------5---3-------------------------------3-----------5---3-------|
D|--------------------5-----------------------5-----------------------5-----------------------5---|
A|3-----------------------------------------------3-----------------------------------------------|
E|------------------------------------------------------------------------------------------------|

G|------------------------------------------------------------------------------------------------|
D|------------------------3-----------5---3-------------------------------3-----------5---3-------|
A|--------------------5-----------------------5-----------------------5-----------------------5-/-|
E|3-----------------------------------------------3-----------------------------------------------|

G|------------------------5-----------7---5-------------------------------3-----------5---3-------|
D|--------------------7-----------------------7-\---------------------5-----------------------5---|
A|5-----------------------------------------------3-----------------------------------------------|
E|------------------------------------------------------------------------------------------------|

G|------------------------------------------------------------------------------------------------|
D|------------------------3-----------5---3-------------------------------------------------------|
A|--------------------5-----------------------5---------------------------3---4---5---3---4---5---|
E|3-----------------------------------------------3-----------------------------------------------|


1:44

G|------------------------------------------------------------------------------------------------|
D|------------------------3-----------5---3-------------------------------3-----------5---3-------| x2
A|--------------------5-----------------------5-----------------------5-----------------------5---|
E|3-----------------------------------------------3-----------------------------------------------|

G|------------------------3-----------5---3-------------------------------3---------/-5---3-------|
D|--------------------5-----------------------5-----------------------5-----------------------5---|
A|3-----------------------------------------------3-----------------------------------------------|
E|------------------------------------------------------------------------------------------------|

G|------------------------------------------------------------------------------------------------|
D|------------------------3-----------5---3-------------------------------3-----------5---3-------|
A|--------------------5-----------------------5-----------------------5-----------------------5-/-|
E|3-----------------------------------------------3-----------------------------------------------|

G|------------------------5-----------7---5-------------------------------3-----------5---3-------|
D|--------------------7-----------------------7-\---------------------5-----------------------5---|
A|5-----------------------------------------------3-----------------------------------------------|
E|------------------------------------------------------------------------------------------------|

G|------------------------------------------------------------------------------------------------|
D|------------------------3-----------5---3-------------------------------------------------------|
A|--------------------5-----------------------5---------------------------3---4---5---3---4---5---|
E|3-----------------------------------------------3-----------------------------------------------|


2:36

G|------------------------------------------------------------------------------------------------|
D|------------------------3-----------5---3-------------------------------3-----------5---3-------| x2
A|--------------------5-----------------------5-----------------------5-----------------------5---|
E|3-----------------------------------------------3-----------------------------------------------|

G|------------------------3-----------5---3-------------------------------3-----------5---3-------|
D|--------------------5-----------------------5-----------------------5-----------------------5---|
A|3-----------------------------------------------3-----------------------------------------------|
E|------------------------------------------------------------------------------------------------|

G|------------------------------------------------------------------------------------------------|
D|------------------------3-----------5---3-------------------------------3-----------5---3-------|
A|--------------------5-----------------------5-----------------------5-----------------------5-/-|
E|3-----------------------------------------------3-----------------------------------------------|

G|------------------------5-----------7---5-------------------------------3-----------5---3-------|
D|--------------------7-----------------------7-\---------------------5-----------------------5---|
A|5-----------------------------------------------3-----------------------------------------------|
E|------------------------------------------------------------------------------------------------|

G|------------------------------------------------------------------------------------------------|
D|------------------------3-----------5---3-------------------------------------------------------|
A|--------------------5-----------------------5---------------------------3---4---5---3---4---5---|
E|3-----------------------------------------------3-----------------------------------------------|


3:28

G|------------------------------------------------------------------------------------------------|
D|------------------------3-----------5---3-------------------------------3-----------5---3-------| x2
A|--------------------5-----------------------5-----------------------5-----------------------5---|
E|3-----------------------------------------------3-----------------------------------------------|

G|------------------------3-----------5---3-------------------------------3-----------5---3-------|
D|--------------------5-----------------------5-----------------------5-----------------------5---|
A|3-----------------------------------------------3-----------------------------------------------|
E|------------------------------------------------------------------------------------------------|

G|------------------------------------------------------------------------------------------------|
D|------------------------3-----------5---3-------------------------------3-----------5---3-------|
A|--------------------5-----------------------5-----------------------5-----------------------5-/-|
E|3-----------------------------------------------3-----------------------------------------------|

G|------------------------5-----------7---5-------------------------------3---------/-5---3-------|
D|--------------------7-----------------------7-\---------------------5-----------------------5---|
A|5-----------------------------------------------3-----------------------------------------------|
E|------------------------------------------------------------------------------------------------|

G|------------------------------------------------------------------------------------------------|
D|------------------------3-----------5---3-------------------------------------------------------|
A|--------------------5-----------------------5---------------------------3---4---5---3---4---5---|
E|3-----------------------------------------------3-----------------------------------------------|


4:20

G|------------------------------------------------------------------------------------------------|
D|------------------------3-----------5---3-------------------------------3-----------5---3-------| x2
A|--------------------5-----------------------5-----------------------5-----------------------5---|
E|3-----------------------------------------------3-----------------------------------------------|

G|------------------------3-----------5---3-------------------------------3-----------5---3-------|
D|--------------------5-----------------------5-----------------------5-----------------------5---|
A|3-----------------------------------------------3-----------------------------------------------|
E|------------------------------------------------------------------------------------------------|

G|------------------------------------------------------------------------------------------------|
D|------------------------3-----------5---3-------------------------------3-----------5---3-------|
A|--------------------5-----------------------5-----------------------5-----------------------5-/-|
E|3-----------------------------------------------3-----------------------------------------------|

G|------------------------5-----------7---5-------------------------------3---------/-5---3-------|
D|--------------------7-----------------------7-\---------------------5-----------------------5---|
A|5-----------------------------------------------3-----------------------------------------------|
E|------------------------------------------------------------------------------------------------|

G|------------------------------------------------------------------------------------------------|
D|------------------------3-----------5---3-------------------------------------------------------|
A|--------------------5-----------------------5---------------------------3---4---5---3---4---5---|
E|3-----------------------------------------------3-----------------------------------------------|


5:13
 
G|------------------------------------------------------------------------------------------------|
D|------------------------3-----------5---3-------------------------------3-----------5---3-------| x2
A|--------------------5-----------------------5-----------------------5-----------------------5---|
E|3-----------------------------------------------3-----------------------------------------------|

G|------------------------3-----------5---3-------------------------------3-----------5---3-------|
D|--------------------5-----------------------5-----------------------5-----------------------5---|
A|3-----------------------------------------------3-----------------------------------------------|
E|------------------------------------------------------------------------------------------------|

G|------------------------------------------------------------------------------------------------|
D|------------------------3-----------5---3-------------------------------3-----------5---3-------|
A|--------------------5-----------------------5-----------------------5-----------------------5-/-|
E|3-----------------------------------------------3-----------------------------------------------|

G|------------------------5-----------7---5-------------------------------------------------------|
D|--------------------7-----------------------7-\-------------------------------------------------|
A|5-----------------------------------------------3-----------------------------------------------|
E|------------------------------------------------------------------------------------------------|

G|------------------------------------------------------------------------------------------------|
D|------------------------3-----------5---3-------5-----------------------------------------------|
A|--------------------5-----------------------5---------------------------------------------------|
E|3---------------------------------------------------------------2-----3-------------------------|



************************************

| /  Slide up
| \  Slide down

************************************
Suggest correction
Creating personal tab
Creating personal tab
You can edit any tab online and save it as your Personal.

You can edit, replace or remove any tab part or add personal notes – all changes will be seen only by you.

Personal tabs can be accessed anytime from any device, even offline.
Learn more »
Give kudos to tab author, rate the tab!
1 2 3 4 5
comments
print report bad tab
guest
You may want to rate the tab now too:
select rating
Wanna post a correction for this tab? Suggest correction