Oops, an error
Loading. Please wait.

Fine China Bass Tab

version 1
version 1

Whole song

Interactive

20,601 views 99 this week
no commentswrite comment
1 2 3 4 5
excellent!
x 4
add to favorites
launch autoscroll
font size
0
reset
guitar tuner
Tab Pro tools
  • play this tab
  • loop segment
  • change instrument
  • show fretboard
  • metronome
Autoscroll
slow
fast
+/-
esc
set tempo
stop
Contributor
Difficulty
Tuning
intermediate
D# G# C# F# A# D#
One of my friends challenged me to learn this, so I did and I saw that there were no 
tabs online for it... so to help all you bass players out there to a fantastic funky bass 
riff, I give you:

Fine China
Chris Brown
Tuning: 1/2 Step Down

Intro
Gb|----------7|----------11--|
Db|---x779-x9-|---x7x79xx--12|
Ab|-7---------|-7------------|2x
Eb|0----------|0-------------|

Gb|-----------16-----------|-------------------|
Db|7-101010-14--14-91012---|7-101014-1617161416|
Ab|------------------------|-------------------|
Eb|-8----------------------|-8-----------------|

Gb|-----------7|-----------|
Db|---x7x79-x9-|-----------|
Ab|-7----------|-7--7--7--7|
Eb|0-----------|0--0--0--0-|


Verse
Gb|----------7|----------11--|
Db|---x779-x9-|---x7x79xx--12|
Ab|-7---------|-7------------|2x
Eb|0----------|0-------------|

Gb|-----------16-----------|-------------------|
Db|7-101010-14--14-91012---|7-101014-1617161416|
Ab|------------------------|-------------------|
Eb|-8----------------------|-8-----------------|

Gb|----------7|
Db|---x779-x9-|
Ab|-7---------|
Eb|0----------|


Bridge
Gb|---------------|--------------|
Db|---------------|--------------|
Ab|0--2-----/7~---|0~--2-8~------|
Eb|----0~---------|--------------|


*Note:  I wrote this for a 4-String Bass.  It's meant to be played on a 5-String, which 
makes it much easier (but I don't own a 5 string... so yeah)

That's basically it...  it's kind of repetitive, with a few mutes and rests here and 
there, but this is pretty much the whole thing.  Have fun!

God Bless! :)
/|\
comments
print report bad tab
I want to post or [tab]
guest
You may want to rate the tab now too:
select rating
Please do not post tabs as comments. Select "correction" instead!