Oops, an error
Loading. Please wait.

Kiss Kiss Bass

version 2
version 2

Whole song

1,266 views 1 this week
no commentswrite comment
1 2 3 4 5
2 more votes to show rating
add to favorites
launch autoscroll
font size
0
reset
guitar tuner
×
Best way to learn
"Kiss Kiss"
Autoscroll
slow
fast
+/-
esc
set tempo
stop
Here you go this song is intended for a more acoustic cover. It's simple just listen to 
song and you'll pick it up. There are two parts that could be played by the bass player 
another guitar. you pick. be creative with it. Thanks.

FIRST PART

G----------------------------------|
D-------8-------------6-66---4444--|
A---6-9---9-6-9-999-6------6-------|
E----------------------------------|

G----------------------------------|
D-------8-------------8------------|
A---6-9---9-6-9-999-6---9-9-8------|
E----------------------------------|


SECOND PART


G----------------------------------|
D-----8-----------8888---9999------|
A---6---9-8-6-666------9-----------|
E----------------------------------|

G----------------------------------|
D-----8-------------66666----------|
A---6---9-8-6-666-9----------------|
E----------------------------------|

Enjoy and check out the Acoustic version for the guitar portion.
Suggest correction
Give kudos to tab author, rate the tab!
1 2 3 4 5
comments
print report bad tab
guest
You may want to rate the tab now too:
select rating
Wanna post a correction for this tab? Suggest correction