Oops, an error
Loading. Please wait.

Kiss Kiss Chords

version 2
version 2

Whole song

12,199 views 6 this week
1 commentread comment
1 2 3 4 5
excellent!
x 3
add to favorites
launch autoscroll
font size
0
reset
transpose
0
reset
display chords
guitar tuner
Autoscroll
slow
fast
+/-
esc
set tempo
stop
Help us to improve Ultimate-Guitar.com Take our survey!
×
Author
I play it with barred chords.

  Eb Bbm B
e-6--6---7---------------|
B-7--6---7---------------|
G-8--6---8---------------|
D-8--8---9---------------|
A-6--8---9---------------|
E----6---7---------------|

Thats all it is for the whole song. Find the strumming pattern you think suits it best.

You can add in fills like:

e-6-----------6---7---------------|
B-7--6h7h6----6---7---------------|
G-8-------8---6---8---------------|
D-8--------8--8---9---------------|
A-6-----------8---9--9h11h9-------|
E-------------6---7---------11----|
Suggest correction
Give kudos to tab author, rate the tab!
1 2 3 4 5
comments
print report bad tab
1 comment total.
0 reply
lolacmb 138 wrote on December 14 2013, 09:25 am

I think this is a Emb instead of Eb, don't you ?

guest
You may want to rate the tab now too:
select rating
Please do not post tabs as comments. Select "correction" instead!