Oops, an error
Loading. Please wait.

Say Goodbye Tab

version 1
version 1

Whole song

30,763 views 15 this week
3 commentsread comments
1 2 3 4 5
accurate
x 6
add to favorites
launch autoscroll
font size
0
reset
how to read this tab
guitar tuner
Autoscroll
slow
fast
+/-
esc
set tempo
stop
Help us to improve Ultimate-Guitar.com Take our survey!
×
Author
Someone made a video of the song, but they didn't have any tabs so I decided to tab it 
ear. If you see any mistakes, feel free to let me know. Enjoy!


e||-----------|------------0~1-1-----1---|------------------|
b||--1-----1--|---0----------------3-----|--1-----1---------|
g||------2----|---------0--------2-------|------0-----------|
d||----2------|-------2--------0---------|----2-------------|
a||--0--------|--------------------------|--3---------------|
E||-----------|---3----------------------|------------------|


e||-----------|------------0~1-1-----1---|------------------|
b||--1-----1--|---0----------------3-----|--0-----0---------|
g||------2----|---------0--------2-------|------1-----------|
d||----2------|-------2--------0---------|----2-------------|
a||--0--------|--------------------------|--2---------------|
E||-----------|---3----------------------|------------------|


e||-----------|------------0~1-1-----1---|------------------|
b||--1-----1--|---0----------------3-----|--1-----1---------|
g||------2----|---------0--------2-------|------0-----------|
d||----2------|-------2--------0---------|----2-------------|
a||--0--------|--------------------------|--3---------------|
E||-----------|---3----------------------|------------------|


e||--3----------3---|----5---------5-----|
b||------0----0-----|--------0---0-------|
g||----2----2-------|------0---0---------|
d||--3--------------|----5---------------|
a||-----------------|--------------------|
E||-----------------|--------------------|
Suggest correction
What's this?
You can suggest a correction to this tab. Community and Mods will review your correction and vote to approve or reject it.
comments
print report bad tab
3 comments total.
0 reply
aznguitarist123 244 wrote on December 5 2007, 05:26 pm

everythings right but
i'm not sure
about:

e||--3----------3---|----5---------5-----|
b||------0----0-----|--------0---0-------|
g||----2----2-------|-
-----0---0---------|
d||--3--------------|----5---------------|
a||-----------------|--------------------|
E||-------
----------|--------------------|

0 reply
aznguitarist123 244 wrote on December 5 2007, 05:26 pm

sry i
ment,
e||--3----------3---|----5---------5-----|
b||------0----0-----|--------0---0-------|
g||----2----2-------|----
--0---0---------|
d||--3--------------|----5---------------|
a||-----------------|--------------------|
E||----------
-------|--------------------|

+1 reply
EmoizMe 20 wrote on March 29 2008, 09:28 am

sick tab but just a couple of things...
number 1 : if you play it with a capo on the 6th fret its sounds really good, but thats just me lolz.

number 2 : this part..
e||--3----------3---|----5---------5-----|
b||------0----0-----|--------0---0-------|
g||----2----2-------|------0---0---------|
d||--3--------------|----5---------------|
a||-----------------|--------------------|
E||-----------------|--------------------| sounds kinda off to me...

so instead u should play it like this

either pick or strum the first ones.
* *
e||--3--------3-----|----5--------5-----|
b||--0------0-------|----0------0-------|
g||--2----2---------|----0----0---------|
d||--3--------------|----5--------------|
a||-----------------|-------------------|
E||-----------------|-------------------|

guest
You may want to rate the tab now too:
select rating
Please do not post tabs as comments. Select "correction" instead!