Oops, an error
Loading. Please wait.
We have Chord Pro version of With You.
It's the closest thing you can get to the original song and it has interactive parts. Check out the tab »
×

With You tab

version 1
version 1

Whole song

Interactive

87,244 views 3 this week
4 commentsread comments
1 2 3 4 5
1 last vote to show rating
add to favorites
×
Save as Personal and add changes to this tab that will be seen only by you. Learn more ›
×
You can save this tab as Personal to edit and correct it or add notes. All changes will be seen only by you. Learn more »
launch autoscroll
font size
0
reset
how to read this tab
guitar tuner
edit
Autoscroll
slow
fast
+/-
esc
set tempo
stop
Difficulty
Tuning: Half-Step Down. You really have to tune it like this to make it sound like the 
:)

V-V-V-^-^-V-V or you can create your own.

Verses:


      E      C#m       A         B
|-----------------------------------------|
|-----------------------------------------|
|-----9-------6---------------------4-----|
|-----9-------6--------7---------9--4-----|
|-----7-------4--------7---------9or2-----|
|----------------------5---------7--------|


Bridge:


      A       B       C#m       B
|------------------------------------|
|------------------------------------|
|---------------------6--------4-----|
|-----7-------9-------6--------4-----|
|-----7-------9-------4--------2-----|
|-----5-------7----------------------|

for any messages or comment
just email me at ginosev7@yahoo.com,ginosev@gmail.com or you can add me up on yahoo! 
ginosev7@yahoo.com

Thank You. :)

            
            
Suggest correction
Creating personal tab
Creating personal tab
You can edit any tab online and save it as your Personal.

You can edit, replace or remove any tab part or add personal notes – all changes will be seen only by you.

Personal tabs can be accessed anytime from any device, even offline.
Learn more »
Give kudos to tab author, rate the tab!
1 2 3 4 5
comments
print report bad tab
4 comments total. Showing first comments.
0 reply
PowderPig 10 Jul 14, 2008 07:44 PM

|-----------------------------------------|
|-----------------------------------------|
|-----9-------8--------5---------8--------|
|-----9-------9--------7---------9--------|
|-----7-------7--------7---------9--------|
|----------------------5---------7--------|
Ever try it this way tuned down a half step?

0 reply
PowderPig 10 Jul 14, 2008 07:46 PM

|-----------------------------------------|
|-----------------------------------------|
|-----9-------8--------6---------8--------|
|-----9-------9--------7---------9--------|
|-----7-------7--------7---------9--------|
|----------------------5---------7--------|
Ever try it this way tuned down a half step?
*Edit: Sorry, meant to put the 6 on the 5775 chord...

0 reply
alltimelowrocks 95 Nov 08, 2008 10:09 AM

agree with powderpig ^^

guest
Wanna post a correction for this tab? Suggest correction