Oops, an error
Loading. Please wait.

Yeah 3X Chords

version 1
version 1

Whole song

74,430 views 54 this week
no commentswrite comment
1 2 3 4 5
worth learning
x 6
add to favorites
launch autoscroll
font size
0
reset
transpose
0
reset
- display chords -
guitar tuner
Tab Pro tools
  • play this tab
  • loop segment
  • change instrument
  • show fretboard
  • metronome
Autoscroll
slow
fast
+/-
esc
set tempo
stop
Contributor
Difficulty
novice
-------------------------------------------------------------------------------
                            YEAH 3X - Chris Brown
-------------------------------------------------------------------------------
First Submitted: October 31st 2010
Last Updated: November 3rd 2010

Tabbed by: Wayne S
Tuning: Standard EADGBE

Capo: 0

Chords:

D:   x00232 or 557775
A:   002220 or 577655
G:   320033 or 355433
Bm:  224432 or 799777
F#m: 244222 (only used in Intro)

For the intro, either use the normal one (right below, more accurate) or the
simplified version below it (easier).

There is also a tabbed version for this song that I have done which is more
accurate but probably harder to play.

[Intro]:

   D     A     G    G  A  Bm              G
e|-------5--5----------------------------------------------------------------|
B|-7--7--5--5--3-------------------------------------------------------------|
G|-7--7--6--6--4----4--6--7---7---7---7---4----------------------------------|
D|-7--7-(7)(7)-5----5--7--9---9---9---9---5----------------------------------|
A|-5--5--7--7-(5)---5--7--9---9---9---9---5----------------------------------|
E|-------------3----3--5--7---7---7---7---3----------------------------------|

   D     A     G    G  A  Bm      F#m     G
e|-------5--5----------------------------------------------------------------|
B|-7--7--5--5--3----------3---3----------------------------------------------|
G|-7--7--6--6--4----4--6--4---4---2---2---4----------------------------------|
D|-7--7-(7)(7)-5----5--7--4---4---4---4---5----------------------------------|
A|-5--5--7--7-(5)---5--7--2---2---4---4---5----------------------------------|
E|-------------3----3--5----------2---2---3----------------------------------|

[Simplified Intro]:

e|------5--5-----------------------------------------------------------------|
B|7--7-------------0--2--3---3---3---3---0-----------------------------------|
G|------------7--------------------------------------------------------------|
D|---------------------------------------------------------------------------|
A|---------------------------------------------------------------------------|
E|---------------------------------------------------------------------------|

e|------5--5-----------------------------------------------------------------|
B|7--7-------------0--2--3---3-----------0-----------------------------------|
G|------------7------------------2---2---------------------------------------|
D|---------------------------------------------------------------------------|
A|---------------------------------------------------------------------------|
E|---------------------------------------------------------------------------|

[Verse 1]:

Note: The chord progression of D, G, Bm, A seems to also sound ok, but if you
listen closely to the backing track, it sounds more like D, G, Bm, G to me.
That's why the tabbed version of this song is more accurate. Having said that,
if the chord progression of D, G, Bm, G does not work for you, try replace it
as follows:

D  -> D
G  -> G
Bm -> Bm
G  -> A

D                G
  Move your body, out on the floor
Bm                 G
Put your troubles aside and start living
D         G
  Anybody, can't let go,
Bm                             G
  Throw away all your problems, cause right now it's party time

[Hook?]:

D          G
Girl don't feel outta place
      Bm        G                           D       G
Cause I, I'm in love with this feelin' now, now ahhhahh
Bm                                G
Hope that this will last a while, we should make it last a while

[Pre-Chorus]:

D
  You like to drink? So do we
G
  Get my bottles, bring 'um to me
Bm
  Hold your glasses up, people everywhere
G
  Now everybody put your hands in the air

[Chorus]:

D         G                   Bm        G
Yeah yeah yeah, girl I wanna, yeah yeah yeah,
I wanna see you tonight, oo yeah
D         G                   Bm        G
Yeah yeah yeah, girl I gotta, yeah yeah yeah
I gotta I gotta I wanna see you tonight

D     G     Bm      G
  Ohhh, Ohhh, Ohhhhhh, Let me see your hands
D     G     Bm      G
  Ohhh, Ohhh, Ohhhhhh, Tonight is the night

[Verse 2]:

D                G             Bm
Up in the moment, can't believe you're so beautiful
G
Feels like I'm in a dream
D                G                      Bm
Baby we're going somewhere you've never been before
   G
So take my hand and come with me


[Repeat Hook]

[Repeat Pre-Chorus]

[Repeat Chorus]

[Rap]:

D                                          G
  All the pretty young things at the party, let me see your hands up
Bm                                           G
  And if they mad and they don't wanna party, tell them people get f****d
D                          G
  So DJ turn it loud, then watch me turn it up
      Bm                                  G
Don't worry about it, we here to party so jump jump jump jump

D    G
            Bm G                       D  G
Girl I wanna, I wanna see ya tonight
                  Bm             G
Yeah, girl I gotta I gotta I gotta I gotta see ya tonight


D         G     Bm        G
Yeah yeah yeah, yeah yeah yeah
D         G     Bm        G
Yeah yeah yeah, yeah yeah yeah
               D
Tonight is the night
comments
print report bad tab
I want to post or [tab]
guest
You may want to rate the tab now too:
select rating
Please do not post tabs as comments. Select "correction" instead!