Oops, an error
Loading. Please wait.

Yeah 3X Tab

version 1
version 1

Whole song

13,645 views 6 this week
no commentswrite comment
1 2 3 4 5
excellent!
x 3
add to favorites
launch autoscroll
font size
0
reset
how to read this tab
guitar tuner
Tab Pro tools
  • play this tab
  • loop segment
  • change instrument
  • show fretboard
  • metronome
×
Best way to learn
"Yeah 3x"
Autoscroll
slow
fast
+/-
esc
set tempo
stop
Contributor
Difficulty
novice
-------------------------------------------------------------------------------
                            YEAH 3X - Chris Brown
-------------------------------------------------------------------------------
First Submitted: October 31st 2010
Last Updated: November 3rd 2010

Tabbed by: Wayne S
Tuning: Standard EADGBE

Capo: 0

Chords:

D:   x00232 or 557775
A:   002220 or 577655
G:   320033 or 355433
Bm:  224432 or 799777
F#m: 244222

I've also done a chords version of this song. Reason for this is I know that not
EVERYONE can read tabs as easily as they can read chords, and probably vice versa,
so at least this way you have a choice. Just refer to the chords version for the
chorded version, which I find easier to play, but less accurate.



[Bass] (right at the beginning):

Note: Not plcuked exactly the same as the song, but can be slowed down to this speed.
Hard to represent with text.

G|---------------------------------------------------------------------------|
D|0-0-0-0-0-0-0-0-0-0--------------------------------------------------------|
A|----------------------------------------2-2-2-2-2-2-2-2--------------------|
E|--------------------3-3-3-3-3-3-3-3-3-3-----------------2-3-3-3-3-3-3-3-3-3|

[Intro]:

   D     A     G    G  A  Bm              G
e|-------5--5----------------------------------------------------------------|
B|-7--7--5--5--3-------------------------------------------------------------|
G|-7--7--6--6--4----4--6--7---7---7---7---4----------------------------------|
D|-7--7-(7)(7)-5----5--7--9---9---9---9---5----------------------------------|
A|-5--5--7--7-(5)---5--7--9---9---9---9---5----------------------------------|
E|-------------3----3--5--7---7---7---7---3----------------------------------|

   D     A     G    G  A  Bm      F#m     G
e|-------5--5----------------------------------------------------------------|
B|-7--7--5--5--3----------3---3----------------------------------------------|
G|-7--7--6--6--4----4--6--4---4---2---2---4----------------------------------|
D|-7--7-(7)(7)-5----5--7--4---4---4---4---5----------------------------------|
A|-5--5--7--7-(5)---5--7--2---2---4---4---5----------------------------------|
E|-------------3----3--5----------2---2---3----------------------------------|

[Verses/Chorus]:

Pick these chords (the strings shown) however many times you feel appropriate,
I find this pattern ok:
pluck [pause] pluck pluck [pause] pluck pluck
Hard to represent it with just words but you should be able to feel it out if
you know the song well enough. Vary the plucking pattern and timing where appropriate.

   D              G      A(1 pluck)  Bm                     G
e|---------------------------------------------------------------------------|
B|-7---------------------------------3---------------------------------------|
G|-7--------------4------(6)---------4----------------------4----------------|
D|-7--------------5------(7)---------4----------------------5----------------|
A|-5--------------5------(7)---------2----------------------5----------------|
E|----------------3------(5)--------------------------------3----------------|

  Move your..     Out on the..       Put your troubles..   and start living..

   D     A        G       A        Bm    F#m            G
e|-------5--5----------------------------------------------------------------|
B|-7--7--5--5----------------------3--3--------------------------------------|
G|-7--7--6--6-----4------(6)-------4--4--2--2-----------4--------------------|
D|-7--7-(7)(7)----5------(7)-------4--4--4--4-----------5--------------------|
A|-5--5--7--7-----5------(7)-------2--2--4--4-----------5--------------------|
E|----------------3------(5)-------------2--2-----------3--------------------|

  Anybody..       Can't let go..   Throw away...        Cause right now it's..

Repeated throughout the song.

[Pre-Chorus]:

   D                      G            Bm             G
e|---------------------------------------------------------------------------|
B|-7-----------------------------------3-------------------------------------|
G|-7----------------------4------------4--------------4----------------------|
D|-7----------------------5------------4--------------5----------------------|
A|-5----------------------5------------2--------------5----------------------|
E|------------------------3---------------------------3----------------------|

You like to drink?...     Get my..     Hold your...   Now everbody..

[Outro]:

   D     A     G    G  A  Bm              G
e|-------5--5----------------------------------------------------------------|
B|-7--7--5--5--3-------------------------------------------------------------|
G|-7--7--6--6--4----4--6--7---7---7---7---4----------------------------------|
D|-7--7-(7)(7)-5----5--7--9---9---9---9---5----------------------------------|
A|-5--5--7--7-(5)---5--7--9---9---9---9---5----------------------------------|
E|-------------3----3--5--7---7---7---7---3----------------------------------|
  [1]   [2]   [3]        [4]             [5]

   D     A     G    G  A  Bm      F#m     G
e|-------5--5----------------------------------------------------------------|
B|-7--7--5--5--3----------3---3----------------------------------------------|
G|-7--7--6--6--4----4--6--4---4---2---2---4----------------------------------|
D|-7--7-(7)(7)-5----5--7--4---4---4---4---5----------------------------------|
A|-5--5--7--7-(5)---5--7--2---2---4---4---5----------------------------------|
E|-------------3----3--5----------2---2---3----------------------------------|
  [6]   [7]   [8]        [9]     [10]    [11]

[1]  [2]  [3]   [4]       [5]
 Yeah yeah yeah, yeah yeah yeah
[6]  [7]  [8]   [9]  [10] [11]
 Yeah yeah yeah, yeah yeah yeah
Tonight is the night

   D           G        A  Bm              G
e|---------------------------------------------------------------------------|
B|-7--7--7--7--------------3---3---3---3-------------------------------------|
G|-7--7--7--7--4--4--4--6--4---4---4---4---4--4--4--4--4---------------------|
D|-7--7--7--7--5--5--5--7--4---4---4---4---5--5--5--5--5---------------------|
A|-5--5--5--5--5--5--5--7--2---2---2---2---5--5--5--5--5---------------------|
E|-------------3--3--3--5------------------3--3--3--3--3---------------------|
comments
We did not receive enough feedback on this tab! Please rate:
print report bad tab
1 2 3 4 5
I want to post or [tab]
guest
You may want to rate the tab now too:
select rating
Please do not post tabs as comments. Select "correction" instead!