Oops, an error
Loading. Please wait.

Let There Be Cowgirls Tab

4,856 views 9 this week
1 commentread comment
1 2 3 4 5
please rate
add to favorites
launch autoscroll
font size
0
reset
how to read this tab
guitar tuner
Autoscroll
slow
fast
+/-
esc
set tempo
stop
Help us to improve Ultimate-Guitar.com Take our survey!
×
Author
Difficulty
Tuning
intermediate
C# G# C# F# A# D#
Tuning: Drop D down 1/2 Step


Intro picking.  Repeat without inclusion of first bar.

e|----------------|-------------------------------------------|
B|----------------|-------------3---------------3-------------|
G|----------------|-------0h2----2---------0h2---2--2---------|
D|----0-----------|---------------0-3-------------3-----------|
A|------3p0-------|-------------------------------------------|
E|-----------1----|--0----------------------------------------|

e|------------------------------------------------------------|
B|-------------3----------------------------------------------|
G|-------0h2----2-----0---------------------------------------|
D|----------------0-------------0--3p0------------------------|
A|----3-------------2-----------------3p0---------------------|
E|------------------------------------------------------------|

Verse chords

      On the very first day  Lord sat down...
e|-----x-x-x-----x-x-x-------------------------------|x4
B|-----3-3-3-----6-6-6-------------------------------|
G|-----2-2-2-----5-5-5-------5-5-5------4-4-4--------|
D|-----0-0-0-----3-3-3-------5-5-5------5-5-5--------|
A|-----0-0-0-----3-3-3-------3-3-3------2-2-2--------|
E|---------------------------------------------------|

PreChorus
            D ^ D ^  And then the mountain rose up...
e|----------------------------------------------------------|X3
B|----------------------------------------------------------|
G|----------5-5-5-5-----------------------------------------|
D|----------5-5-5-5-------------------------------------=---|
A|----------3-3-3-3-----------------------------------------|
E|----------------------------------------------------------|

            And all the angels up in heaven....
e|----------------------------------------------------------|
B|----------------------------------------------------------|
G|----------2-2-2-2-2-2-2-2-2-2-2-2-2-2-2-2-2-2-2-----------|
D|----------2-2-2-2-2-2-2-2-2-2-2-2-2-2-2-2-2-2-2-------=---|
A|----------0-0-0-0-0-0-0-0-0-0-0-0-0-0-0-0-0-0-0-----------|
E|----------------------------------------------------------|

Chorus

        Let there be cowgirls for every cowboy to make 'em
e|-----------------------------------------------------------------|
B|----------------------------6-6-6-6-6-6-6-6-6-6-6-6-6------------|
G|------------7-7-7-7-7-7-7-7-5-5-5-5-5-5-5-5-5-5-5-5-5------------|
D|------------7-7-7-7-7-7-7-7-3-3-3-3-3-3-3-3-3-3-3-3-3------------|
A|------------5-5-5-5-5-5-5-5-3-3-3-3-3-3-3-3-3-3-3-3-3------------|
E|----------------------------3-3-3-3-3-3-3-3-3-3-3-3-3------------|

         strong   as  any     man       Lordy....
e|-----------------------------------------------------------------|x3
B|----------------------------8-8-8-8-8-8-8-8-8-8-8-8-8------------|
G|------5-5-5-5-5-5-5-5-5-5-5-7-7-7-7-7-7-7-7-7-7-7-7-7------------|
D|------5-5-5-5-5-5-5-5-5-5-5-5-5-5-5-5-5-5-5-5-5-5-5-5------------|
A|------3-3-3-3-3-3-3-3-3-3-3-5-5-5-5-5-5-5-5-5-5-5-5-5------------|
E|----------------------------5-5-5-5-5-5-5-5-5-5-5-5-5------------|

                                      Let there be cowgirls
e|-----------------------------------------------------------------|
B|-----------------------------------------------------------------|
G|-----------------------------------------------------------------|
D|-------3-slide-5-5-5---3-slide-5-5-5-----------------------------|
A|-------3-slide-5-5-5---3-slide-5-5-5-----------------------------|
E|-------3-slide-5-5-5---3-slide-5-5-5-----------------------------|

Awesome Song!

The verse chords could be replaced witht the chorus chords.  I personally just like to 
have some variation to distinguish the two.

Can be played in Drop D, but must be down 1/2 step if you want to play with the record.
Suggest correction
Give kudos to tab author, rate the tab!
1 2 3 4 5
comments
print report bad tab
1 comment total.
0 reply
speedskier465 22 wrote on March 29 2015, 01:18 pm

That's called drop C# tuning.

guest
You may want to rate the tab now too:
select rating
Please do not post tabs as comments. Select "correction" instead!