Oops, an error
Loading. Please wait.

Miss Me Baby Tab

7,416 views 1 this week
2 commentsread comments
1 2 3 4 5
1 last vote to show rating
add to favorites
launch autoscroll
font size
0
reset
how to read this tab
guitar tuner
Autoscroll
slow
fast
+/-
esc
set tempo
stop
Help us to improve Ultimate-Guitar.com Take our survey!
×
Author
Difficulty
novice
-------------------------------------------------------------------------------
                             SONG NAME - Band Name
-------------------------------------------------------------------------------
Tabbed by: borrizle
Email: daphilieagles5@comcast.net

Tuning: standard eadgbe

e|---------0------2-------3--2--0-------0--2-----------------------------------------|
B|------3---------------------------3---------0--------------------------------------|
G|---2--------2-------2--------------------------------------------------------------|
D|-0---------------------------------------------------------------------------------|
A|-----------------------------------------------------------------------------------|
E|-----------------------------------------------------------------------------------|

http://chriscagle.musiccitynetworks.com/
Suggest correction
Give kudos to tab author, rate the tab!
1 2 3 4 5
comments
print report bad tab
2 comments total.
0 reply
bamaguy85 10 Mar 19, 2007 02:51 AM

its missing a few notes

0 reply
jackthefisher 10 Feb 25, 2010 08:35 PM

i agree i think all the notes in there are right though

guest
You may want to rate the tab now too:
select rating
Wanna post a correction for this tab? Suggest correction