Oops, an error
Loading. Please wait.

Billie Jean Live Acoustic Tab

38,066 views 36 this week
2 commentsread comments
1 2 3 4 5
accurate
x 3
add to favorites
launch autoscroll
font size
0
reset
how to read this tab
guitar tuner
Tab Pro tools
  • play this tab
  • loop segment
  • change instrument
  • show fretboard
  • metronome
Autoscroll
slow
fast
+/-
esc
set tempo
stop
Contributor
-------------------------------------------------------------------------------
                  Billie Jean Live Acoustic Cover - Chris Cornell
-------------------------------------------------------------------------------
Tabbed by:mike goerz
Email:mikegoerz@hotmail.com

Tuning: Standard

Verse 1
e|---------------|
B|---------------|
G|--------0------|   x4
D|------2---2----|
A|----2-------2--|
E|--0------------|

e|---------------|
B|--------1------|
G|------2---2----|   x2
D|----2-------2--|
A|--0------------|
E|---------------|

e|---------------|
B|---------------|
G|--------0------|   x2
D|------2---2----|
A|----2-------2--|
E|--0------------|

e|---------------|
B|--------1------|
G|------2---2----|   x2
D|----2-------2--|
A|--0------------|
E|---------------|

e|----------------------|
B|--------1------1---3--|
G|------0---0----0---0--|   
D|----2-------2--2---4--|
A|--3------------3---5--|
E|----------------------|

e|---------------|
B|---------------|
G|--------0------|   x4
D|------2---2----|
A|----2-------2--|
E|--0------------|

e|---------------|
B|--------1------|
G|------2---2----|   x2
D|----2-------2--|
A|--0------------|
E|---------------|

e|---------------|
B|---------------|
G|--------0------|   x2
D|------2---2----|
A|----2-------2--|
E|--0------------|

Pre chorus
e|-0--0--0--0--00-0--0--0--0--00-0--0--0--0--00-0--0--0000000--|
B|-1--1--0--0--00-1--1--0--0--00-1--1--0--0--00-1--1--0000000--|
G|-2--2--0--0--00-2--2--0--0--00-2--2--0--0--00-2--2--7--7--7--|
D|-2--2--2--2--22-2--2--2--2--22-2--2--2--2--22-2--2--7--7--7--|
A|-0--0--2--2--22-0--0--2--2--22-0--0--2--2--22-0--0--0--0--0--|
E|-0--0--0--0--00-0--0--0--0--00-0--0--0--0--00-0--0-----------|

Chorus
e|--0--00-0--00-0--0-0--00-0-00-0-00-0--0-0--00-0-00-0-00-0-00-0-00-0-00--|
B|--0--00-1--11-0--0-0--00-0-00-1-11-0--0-0--00-3-33-0-00-3-33-3-33-0-00--|
G|--0--00-2--22-0--0-0--00-0-00-2-22-0--0-0--00-4-44-5-55-4-44-4-44-0-00--|
D|--2--22-2--22-2--2-2--22-2-22-2-22-2--2-2--22-4-44-5-55-4-44-4-44-2-22--|
A|--2--22-0--00-2--2-2--22-2-22-0-00-2--2-2--22-0-00-0-00-0-00-0-00-2-22--|
E|--0--00-0--00-0--0-0--00-0-00-0-00-0--0-0--00---------------------0-00--|

e|-----------0--------------0-00-0-00-0-00-0-00-0-00-----------0--|
B|-00000000000--------------3-33-0-00-0-00-0-00-0-00-00000000000--|
G|-77777777770---(pause)----4-44-5-55-7-77-9-99-0-00-77777777770--|
D|-77777777772--------------4-44-5-55-7-77-9-99-2-22-77777777772--|
A|-00000000002--------------0-00-0-00-0-00-0-00-2-22-00000000002--|
E|-----------0----------------------------------0-00-----------0--|
   ^--(fast strumming)                               ^--(fast strumming)

Verse 2
e|---------------|
B|---------------|
G|--------0------|   x4
D|------2---2----|
A|----2-------2--|
E|--0------------|

e|---------------|
B|--------1------|
G|------2---2----|   x2
D|----2-------2--|
A|--0------------|
E|---------------|

e|---------------|
B|---------------|
G|--------0------|   x2
D|------2---2----|
A|----2-------2--|
E|--0------------|

e|---------------|
B|--------1------|
G|------2---2----|   x2
D|----2-------2--|
A|--0------------|
E|---------------|

e|----------------------------|
B|--------1-------------------|
G|------0---0-------(pause)---|
D|----2-------2---------------|
A|--3-----------3-------------|
E|----------------------------|



e|---------------|
B|---------------|
G|--------0------|   x4
D|------2---2----|
A|----2-------2--|
E|--0------------|

e|---------------|
B|--------1------|
G|------2---2----|   x2
D|----2-------2--|
A|--0------------|
E|---------------|

e|--------------------------|
B|--------------------------|
G|--------0-----------0--00-|   
D|------2---2-------2-2--22-|
A|----2-------2---2---2--22-|
E|--0-----------0-----------|

Pre chorus
e|-0--0--0--0--00-0--0--0--0--00-0--0--0--0--00-0--0--0000000000--|
B|-1--1--0--0--00-1--1--0--0--00-1--1--0--0--00-1--1--0000000000--|
G|-2--2--0--0--00-2--2--0--0--00-2--2--0--0--00-2--2--7--7--7--7--|
D|-2--2--2--2--22-2--2--2--2--22-2--2--2--2--22-2--2--7--7--7--7--|
A|-0--0--2--2--22-0--0--2--2--22-0--0--2--2--22-0--0--0--0--0--0--|
E|-0--0--0--0--00-0--0--0--0--00-0--0--0--0--00-0--0--------------|

Chorus
e|--0--00-0--00-0--0-0--00-0-00-0-00-0--0-0--00-0-00-0-00-0-00-0-00-0-00--|
B|--0--00-1--11-0--0-0--00-0-00-1-11-0--0-0--00-3-33-0-00-0-00-0-00-0-00--|
G|--0--00-2--22-0--0-0--00-0-00-2-22-0--0-0--00-4-44-5-55-7-77-9-99-0-00--|
D|--2--22-2--22-2--2-2--22-2-22-2-22-2--2-2--22-4-44-5-55-7-77-9-99-2-22--|
A|--2--22-0--00-2--2-2--22-2-22-0-00-2--2-2--22-0-00-0-00-0-00-0-00-2-22--|
E|--0--00-0--00-0--0-0--00-0-00-0-00-0--0-0--00---------------------0-00--|

e|-----------0-xxxx-xxx0-00-0-00-0-00-0-00-0-00-----------0-------------|
B|-00000000000-xxxx-xxx3-33-0-00-3-33-3-33-0-00-00000000000-------------|
G|-77777777770-xxxx-xxx4-44-5-55-4-44-4-44-0-00-77777777770---(pause)---|
D|-77777777772-xxxx-xxx4-44-5-55-4-44-4-44-2-22-77777777772-------------|
A|-00000000002-xxxx-xxx0-00-0-00-0-00-0-00-2-22-00000000000-------------|
E|-----------0-----------------------------0-00-----------0-------------|
   ^--(fast strumming)                               ^--(fast strumming)

e|-0-00-0-00-0-00-0-00-0-00-----------0--|
B|-3-33-0-00-0-00-0-00-0-00-00000000000--|
G|-4-44-5-55-7-77-9-99-0-00-77777777770--|
D|-4-44-5-55-7-77-9-99-2-22-77777777772--|
A|-0-00-0-00-0-00-0-00-2-22-00000000000--|
E|---------------------0-00-----------0--|
                            ^--(fast strumming)



| /  slide up
| \  slide down
| h  hammer-on
| p  pull-off
| ~  vibrato
| +  harmonic
| x  Mute note
===============================================================================
comments
We did not receive enough feedback on this tab! Please rate:
print report bad tab
1 2 3 4 5
2 comments total.
0 reply
lacrosseninja wrote on April 13 2009, 06:12 pm

a little confusing...

+1 reply
rain_grunge wrote on September 27 2013, 12:13 am

pretty good, but on the pre chorus, its C major instead of A minor, otherise pretty good job

I want to post or [tab]
guest
You may want to rate the tab now too:
select rating
Please do not post tabs as comments. Select "correction" instead!