Oops, an error
Loading. Please wait.

Cant Change Me tab

version 5
version 5

Whole song

  • This is how Chris plays the song on his solo tour (Songbook / Higher Truth).
  • Concise chords with capo on 3rd fret and a few more fills.

Interactive

178 views 6 this week
no commentswrite comment
1 2 3 4 5
3 more votes to show rating
add to favorites
×
Save as Personal and add changes to this tab that will be seen only by you. Learn more ›
×
You can save this tab as Personal to edit and correct it or add notes. All changes will be seen only by you. Learn more »
launch autoscroll
font size
0
reset
how to read this tab
guitar tuner
edit
Autoscroll
slow
fast
+/-
esc
set tempo
stop
About this tab version
Concise chords with capo on 3rd fret and a few more fills. Was this info helpful? Yes No
[Intro]
e|-------|-------------------------------------------------------------------|
B|-------|-------------------------------------------------------------------|
G|-------|.----------2------------2h4--2-------------------------------------|
D|-------|.--2--4/5--2--5--4/5----2----2--5\4--------------------------------| [2x]
A|----2--|---2--2-------2--2--------------2----------------------------------|
E|--0----|-------------------------------------------------------------------|
   [16x]

[Verse 1]
    Em        G6 Dbdim     C    Em    Emadd9       A   Esus
e|-----------------------------------------------------------------------------------|
B|-------------------------------------------------2---------------------------------|
G|-------------------------------------------------2---2-----------------------------|
D|--2----------0--2--------2-----2-------2---------2---2-----------------------------|
A|--2----------2--4--------3-----2-------2-------------------------------------------|
E|---------------------------------------2-------------------------------------------|
    She can do anything at all / Have anything she pleases

       Em      G6             Dbdim       C          Em           Emadd9       A  Esus
e|------------------------------------------------------------------------------------|
B|-----------------------------------------------------------------------------2------|
G|-----------------------------------------------------------------------------2---2--|
D|-----2--------0---------------2---------2-----------2--------------2---------2---2--|
A|-----2--------2---------------4---------3-----------2--------------2----------------|
E|-------------------------------------------------------------------2----------------|
   The power to change what she thinks is wrong / But what could she want with me? Yeah
 
[Bridge 1]
   Cmaj7       B7                       G             G7         C         Cm
e|------------------------------------------------------------------------------------|
B|--5-----------4------------------------------------------------5---------4----------|
G|--4-----------2-----------------------4--------------4---------5---------5----------|
D|--5-----------4-----------------------5--------------3---------5---------5----------|
A|--3-----------2-----------------------5--------------5---------3---------3----------|
E|--------------------------------------3--------------3------------------------------|
    Wait, just, one minute here / I can see that she's trying to read me / Suddenly I know,

[Chorus 1]
    G            F#7sus       A       B7
e|------------------------------------------------------------------------------------|
B|----------------------------2-------4-----------------------------------------------|
G|--4--------------4----------2-------2-----------------------------------------------|
D|--5--------------2----------2-------4-----------------------------------------------| [3x]
A|--5--------------4------------------2-----------------------------------------------|
E|--3--------------2------------------------------------------------------------------|
    She's going to change the world 

           Am     B7    Em           Am    B7    Em
e|------------------------------------------------------------------------------------|
B|----------1-----4------------------1-----4------------------------------------------|
G|----------2-----2------------------2-----2------------------------------------------|
D|----------2-----4------2-----------2-----4------2-----------------------------------| 
A|----------------2------2-----------------2------2-----------------------------------|
E|------------------------------------------------------------------------------------|
    But she can't change me / No she can't change me

e|------------------------------------------------------------------------------------|
B|------------------------------------------------------------------------------------|
G|------------------2--------4--2-----------------------------------------------------|
D|--2--4-4--5--4/5--2--5\4---2--2--5\4------------------------------------------------| 
A|--2--2-2--2--2-------2-----------2--------------------------------------------------|
E|------------------------------------------------------------------------------------|

[Verse 2]
    Em         G6      Dbdim    C        Em          Emadd9        A      Esus
e|------------------------------------------------------------------------------------|
B|-----------------------------------------------------------------2------------------|
G|-----------------------------------------------------------------2-------2----------|
D|--2-----------0--------2------2---------2-------------2----------2-------2----------|
A|--2-----------2--------4------3---------2-------------2-----------------------------|
E|------------------------------------------------------2-----------------------------|
    She has the daylight at her command / She gives the night it's dreams, yeah

   Em        G6        Dbdim     C         Em     Emadd9        A   Esus
e|------------------------------------------------------------------------------------|
B|--------------------------------------------------------------2---------------------|
G|--------------------------------------------------------------2----2----------------|
D|--2---------0----------2-------2----------2--------2----------2----2----------------|
A|--2---------2----------4-------3----------2--------2--------------------------------|
E|---------------------------------------------------2--------------------------------|
    She can uncover your darkest fear / And make you forget you feel it

[Bridge 2]
   Cmaj7       B7                       G             G7         C         Cm
e|------------------------------------------------------------------------------------|
B|--5-----------4------------------------------------------------5---------4----------|
G|--4-----------2-----------------------4--------------4---------5---------5----------|
D|--5-----------4-----------------------5--------------3---------5---------5----------|
A|--3-----------2-----------------------5--------------5---------3---------3----------|
E|--------------------------------------3--------------3------------------------------|
    Wait, just, one minute more / I can see that she's trying to free me / Suddenly I know,

[Chorus 2]
    G            F#7sus       A       B7
e|------------------------------------------------------------------------------------|
B|----------------------------2-------4-----------------------------------------------|
G|--4--------------4----------2-------2-----------------------------------------------|
D|--5--------------2----------2-------4-----------------------------------------------| [3x]
A|--5--------------4------------------2-----------------------------------------------|
E|--3--------------2------------------------------------------------------------------|
    She's going to change the world 

           Am     B7    Em           Am    B7    Am
e|------------------------------------------------------------------------------------|
B|----------1-----4------------------1-----4------1-----------------------------------|
G|----------2-----2------------------2-----2------2-----------------------------------|
D|----------2-----4------2-----------2-----4------2-----------------------------------| 
A|----------------2------2-----------------2------------------------------------------|
E|------------------------------------------------------------------------------------|
    But she can't change me / No she can't change me

[Interlude]
        Am                 Em                G7         C
e|------------------------------------------------------------------------------------|
B|------1-----------------------------------------------5-----------------------------|
G|------2------------------------------------4----------5-----------------------------|
D|------2------------------2-----------------3----------5-----------------------------|
A|-------------------------2-----------------5----------3-----------------------------|
E|-------------------------------------------3----------------------------------------|
    And suddenly I can see everything that's wrong with me, yeah

       Am                     Em                  B7  B11                  Em
e|------------------------------------------------------------------------------------|
B|------1------------------------------------------4---4-----4--4-----4---------------|
G|------2------------------------------------------2---2-----2--2-----2---------------|
D|------2----------------------2-------------------4---2h4h5-4--2h4h5-4----2----------|
A|-----------------------------2-------------------2---2-----2--2-----2----2----------|
E|------------------------------------------------------------------------------------|
    But what can I do? I'm the only thing I really have                 at all

[Solo]
e|------------------------------------------------------------------------------------|
B|------------------------------------------------------------------------------------|
G|------------------2-----------2h4--2------------2-----------------------------------|
D|--2-2--4--5--4/5--2--5--4/5---2----2--5-5\4--5--2--4--------------------------------| 
A|--2-2--2--2--2-------2--2-------------2-2----2-----2--------------------------------|
E|------------------------------------------------------------------------------------|

e|------------------------------------------------------------------------------------|
B|---------------------------------------------------4--------------------------------|
G|------------------2-----------2h4--2------------2--2--------------------------------|
D|--2-2--4--5--4/5--2--5--4/5---2----2--5-5\4--5--2--4--------------------------------|
A|--2-2--2--2--2-------2--2-------------2-2----2-----2--------------------------------|
E|------------------------------------------------------------------------------------|

[Bridge 3]
   Cmaj7       B7                       G             G7         C         Cm
e|------------------------------------------------------------------------------------|
B|--5-----------4------------------------------------------------5---------4----------|
G|--4-----------2-----------------------4--------------4---------5---------5----------|
D|--5-----------4-----------------------5--------------3---------5---------5----------|
A|--3-----------2-----------------------5--------------5---------3---------3----------|
E|--------------------------------------3--------------3------------------------------|
    Wait, just, one minute here / I can see that she's trying to need me / Suddenly I know,

[Chorus 1]
    G            F#7sus       A       B7
e|------------------------------------------------------------------------------------|
B|----------------------------2-------4-----------------------------------------------|
G|--4--------------4----------2-------2-----------------------------------------------|
D|--5--------------2----------2-------4-----------------------------------------------| [3x]
A|--5--------------4------------------2-----------------------------------------------|
E|--3--------------2------------------------------------------------------------------|
    She's going to change the world 

           Am     B7    Em           Am    B7       Em
e|------------------------------------------------------------------------------------|
B|----------1-----4------------------1-----4------------------------------------------|
G|----------2-----2------------------2-----2------------------------------------------|
D|----------2-----4------2-----------2-----4--------2---------------------------------| 
A|----------------2------2-----------------2--------2---------------------------------|
E|------------------------------------------------------------------------------------|
    But she can't change me / No she can't change me


************************************

| h   Hammer-on
| /   Slide up
| \   Slide down

************************************

            
            
Suggest correction
Creating personal tab
Creating personal tab
You can edit any tab online and save it as your Personal.

You can edit, replace or remove any tab part or add personal notes – all changes will be seen only by you.

Personal tabs can be accessed anytime from any device, even offline.
Learn more »
Give kudos to tab author, rate the tab!
1 2 3 4 5
comments
print report bad tab
guest
You may want to rate the tab now too:
select rating
Wanna post a correction for this tab? Suggest correction