Oops, an error
Loading. Please wait.

Dead Wishes tab

version 1
version 1

Whole song

  • Finger picked Dead Wishes (by Chris Cornell) tab, but uses chords in chorus.

Interactive

1,054 views 78 this week
no commentswrite comment
1 2 3 4 5
1 last vote to show rating
add to favorites
×
Save as Personal and add changes to this tab that will be seen only by you. Learn more ›
×
You can save this tab as Personal to edit and correct it or add notes. All changes will be seen only by you. Learn more »
launch autoscroll
font size
0
reset
how to read this tab
guitar tuner
edit
Autoscroll
slow
fast
+/-
esc
set tempo
stop
About this tab version
Finger picked Dead Wishes (by Chris Cornell) tab, but uses chords in chorus. Was this info helpful? Yes No
NOTE: Excluding the intro, every bass note is played on the beat, so it's up to you to figure out the timing 
of all the notes in the middle. I've tried to help by using spacing, but there's only so much I can do.

There are 3 verse sections (it plays exactly as written until about half way through the first verse) but
the rest of the song uses the same fingering so you just have to mix and match it.

I play chorus with chords (which can be found on other tabs), but I'm working on an alternate version with 
capo on the 3rd fret that includes the chorus finger picked too.

Video of me playing here if you need more help: https://www.youtube.com/watch?v=Cvxlk9kmoKM&lc


[Intro]
E|-----3-----2-----3--2v--------3----------3------------3--0h2p0--------3----------------|
B|--------3------------------------3h5--------5v------------------3--------3h5--3--------|
G|--0-----------0------------0----------0------------0---------------0-------------2/4v--|
D|---------------------------------------------------------------------------------------|
A|---------------------------------------------------------------------------------------|
E|---------------------------------------------------------------------------------------|


E|-----3-----2-----3--2v--------3----------3------------3--0h2p0--------3---------------3v--|
B|--------3------------------------3h5--------5v------------------3--------3h5--3-----------|
G|--0-----------0------------0----------0------------0---------------0-------------2/4------|
D|------------------------------------------------------------------------------------------|
A|------------------------------------------------------------------------------------------|
E|------------------------------------------------------------------------------------------|

[Verse Section 1]
E|------------------------------------------------4-2------------0-------------------------------|
B|----------------------------------------------3-----------3----------3-----------0-------------|
G|-----0-----0-----0-----0-----0-----0-----0-----0-----0------0-----0-----0--2h4-0------0-----0--|
D|-----------------------------------------------------------------------------------------------|
A|-----------------------------------------------------------------------------------------------|
E|--3-----3-----3-----3-----3-----3-----3-----3-----3-----3------3-----3-----3-------3-----3-----|


E|---------2------------0---------------------------------------2------------0-------------------------------|
B|----3------------3----------3-----------0----0------------3-----------3----------3-----------0-------------|
G|------0-----0------0-----0-----0--2h4-0--------2-p0--0-----0-----0------0-----0-----0--2h4-0------0-----0--|
D|-----------------------------------------------------------------------------------------------------------|
A|-----------------------------------------------------------------------------------------------------------|
E|--3------3-----3------3-----3-----3-------3-------3-----3-----3-----3------3-----3-----3-------3-----3-----|


E|---------2------------0---------------------------------------|
B|----3------------3----------3-----------0----0----------------|
G|------0-----0------0-----0-----0--2h4-0--------2-p0--0-----0--|
D|--------------------------------------------------------------|
A|--------------------------------------------------------------|
E|--3------3-----3------3-----3-----3-------3-------3-----3-----|

[Verse Section 2]
E|--0----------------------------------------------------0---------------------------------------------------|
B|----------0---3-----------------0------------------------------0---3-----------------0----0----------------|
G|-----0-----0-----0-----0--2h4-0-------0-----0-----0-------0-----0-----0-----0--2h4-0--------2-p0--0-----0--|
D|-----------------------------------------------------------------------------------------------------------|
A|-----------------------------------------------------------------------------------------------------------|
E|--3-----3-----3-----3-----3--------3-----3-----3-------3-----3-----3-----3-----3-------3-------3-----3-----|


E|--0--------------------------------------------------|
B|----------0---3-----------------0--------------------|
G|-----0-----0-----0-----0--2h4-0-------0-----0-----0--|
D|-----------------------------------------------------|
A|-----------------------------------------------------|
E|--3-----3-----3-----3-----3--------3-----3-----3-----|

[Verse Section 3]
E|------------------3---------------------------------3---------------|
B|--3--0-------3p0-----0-------3p0----3--0-------3p0-----0-------3p0--|
G|-----0h2-------0-----0h2-------0-------0h2-------0-----0h2-------0--|
D|--------------------------------------------------------------------|
A|--3-------3-------3-------3---------3-------3-------3-------3-------|
E|--------------------------------------------------------------------|

[Outro]
E|-----------------------------------------------------------|
B|-------0----0----0----0----3---------0----0----------------|
G|--2h4-0-------2------0-------0--2h4-0-------2--0--0-----0--|  x4
D|-----------------------------------------------------------|
A|-----------------------------------------------------------|
E|--3-------3------3-------3------3-------3------3-----3-----|



************************************

| h  Hammer-on
| p  Pull-off
| /  Slide up
| v  Vibrato

************************************
Suggest correction
Creating personal tab
Creating personal tab
You can edit any tab online and save it as your Personal.

You can edit, replace or remove any tab part or add personal notes – all changes will be seen only by you.

Personal tabs can be accessed anytime from any device, even offline.
Learn more »
Give kudos to tab author, rate the tab!
1 2 3 4 5
comments
print report bad tab
guest
You may want to rate the tab now too:
select rating
Wanna post a correction for this tab? Suggest correction