Oops, an error
Loading. Please wait.

Follow My Way Tab

version 1
version 1

Whole song

Interactive

6,528 views 6 this week
no commentswrite comment
1 2 3 4 5
excellent!
x 5
add to favorites
launch autoscroll
font size
0
reset
how to read this tab
guitar tuner
Autoscroll
slow
fast
+/-
esc
set tempo
stop
Help us to improve Ultimate-Guitar.com Take our survey!
×
Person: Alex ( Adder_XYU@hotmail.com)

song: Follow My Way

artist: Chris Cornell

tab: Follow My Way      ~ Chris Cornell ~ Euphoria Morning, 1999

Questions/comments sent to Adder_XYU@hotmail.com

Guitar 1:
e|-------0-2h3---------------------|-------0-2h3---------------------|
B|---0-3-------0--2h3p2-0-3--0-3---|---0-3-------0--2h3p2-0-3--0-3---|
G|-0-------------------------0-----|-0-------------------------0-----|
D|---------------------------------|---------------------------------|
A|---------------------------------|---------------------------------|
E|---------------------------------|---------------------------------|
Guitar 2:
e|---------------------------------|---------------------------------|
B|-----------------------------3---|-----------------------------3---|
G|-------------------------------2-|-------------------------------2-|
D|---------------------------3-----|---------------------------3-----|
A|-------------------------1-------|-------------------------1-------|
E|---------------------------------|---------------------------------|

Verse ~ Guitar 1:
e|-------0-2h3---------------------|-------0-2h3---------------------|
B|---0-3-------0--2h3p2-0-3--0-3---|---0-3-------0--2h3p2-0-3--0-3---|
G|-0-------------------------0-----|-0-------------------------0-----|
D|---------------------------------|---------------------------------|
A|---------------------------------|---------------------------------|
E|---------------------------------|---------------------------------|
Guitar 2:
e|---------------------------------|---------------------------------|
B|-----------------------------3---|-----------------------------3---|
G|-------------------------------2-|-------------------------------2-|
D|---------------------------3-----|---------------------------3-----|
A|-------------------------1-------|-------------------------1-------|
E|---------------------------------|---------------------------------|
1.         Little one dont be  a     fool.    I'm a wreck when I look  
2.           You're just looking for a boy      bathed in infrared and

Guitar 1:
e|-------0-2h3---------------------|-------0-2h3---------------------|
B|---0-3-------0--2h3p2-0-3--0-3---|---0-3-------0--2h3p2-0-3--0-3---|
G|---------------------------0-----|-0-------------------------0-----|
D|---------------------------------|---------------------------------|
A|---------------------------------|---------------------------------|
E|-0-------------------------------|---------------------------------|
Guitar 2:
e|---------------------------------|---------------------------------|
B|-----------------------------3---|-----------------------------3---|
G|-------------------------------2-|-------------------------------2-|
D|---------------------------3-----|---------------------------3-----|
A|-------------------------1-------|-------------------------1-------|
E|---------------------------------|---------------------------------|
   migh  -   ty.                              In  eu - phoria     I'm
   sun   -   light.                           I'm all  polish and re-

Guitar 1:
e|-------0-2h3---------------------|-------0-2h3---------------------|
B|---0-3-------0--2h3p2-0-3--0-3---|---0-3-------0--2h3p2-0-3--0-3---|
G|-0-------------------------0-----|---------------------------0-----|
D|---------------------------------|---------------------------------|
A|---------------------------------|---------------------------------|
E|---------------------------------|-0-------------------------------|
Guitar 2:
e|---------------------------------|---------------------------------|
B|-----------------------------3---|-----------------------------3---|
G|-------------------------------2-|-------------------------------2-|
D|---------------------------3-----|---------------------------3-----|
A|-------------------------1-------|-------------------------1-------|
E|---------------------------------|---------------------------------|
 bruised,     in confusion next I'm  light - ning.
 ward,        when I'm confident I'm hope  - less

Guitar 1:
e|-------0-2h3---------------------|-------0-2h3---------------------|
B|---0-3-------0--2h3p2-0-3--0-3---|---0-3-------0--2h3p2-0-3--0-3---|
G|-0-------------------------0-----|-0-------------------------0-----|
D|---------------------------------|---------------------------------|
A|---------------------------------|---------------------------------|
E|---------------------------------|---------------------------------|
Guitar 2:
e|---------------------------------|---------------------------------|
B|-----------------------------3---|-----------------------------3---|
G|-------------------------------2-|-------------------------------2-|
D|---------------------------3-----|---------------------------3-----|
A|-------------------------1-------|-------------------------1-------|
E|---------------------------------|---------------------------------|
                In complacence I   am    small,      through oblivion I
             Just like every-bo - dy   else  right before they fall a-

Chorus:
e|--------------------------------------|---------------------------|
B|--------------------------------------|---------------------------|
G|-3----------3---------3---3-----------|---------------------------|
D|-3----------3---------3---3-----------|-3------3------3-3--3-3-3--|
A|-1----------1---------1---1-----------|-3------3------3-3--3-3-3--|
E|--------------------------------------|-1------1------1-1--1-1-1--|

1. charge. So follow my way when I'm not leading any  - one
2. part.   So follow my way when I am    falling from your heart
3. charge. So follow my way when I am    useless to your cause

e|--------------------------------|--------------------------------|
B|--------------------------------|--------------------------------|
G|-3--3--------3-----3------------|-7--------7---------------------|
D|-3--3--------3-----3------------|-7--------7-----7--7----7-7-7-7-|
A|-1--1--------1-----1------------|-5--------5-----7--7----7-7-7-7-|
E|--------------------------------|----------------5--5----5-5-5-5-|

      Open and frayed when you can  see that I'm unsure.
        When I'm the pain, fever and  sweet relief in one.
        When I derail   calm in  the  patience of remorse.

e|--------------------------------|--------------------------------|
B|--------------------------------|--------------------------------|
G|-9--9---------9----9------------|--------------------------------|
D|-9--9---------9----9------------|-9---------9-----9--9---9-9-9-9-|
A|-7--7---------7----7------------|-9---------9-----9--9---9-9-9-9-|
E|-0--0---------0----0------------|-7---------7-----7--7---7-7-7-7-|

        Out on my way, Im     on- ly  pure when I get lost,
        Out on my way, though I'm not worthy of your trust,
        Out on my way, out    on  my  empty  o-pen  nerves
                                                      |1.
e|------------------------------------|----------------------------|
B|------------------------------------|----------------------------|
G|------------------------------------|-8-------8------8-8-8-8-8-8-|
D|-9----9-----------6-------6---------|-8-------8------8-8-8-8-8-8-|
A|-7----7-----------6-------6---------|-6-------6------6-6-6-6-6-6-|
E|-0----0-----------4-------4---------|----------------------------|
    And you're only needing when you're finding that I'm not
          Follow  me  down  into   a      swan    dive
          When all you know is that I don't know where

Guitar 1:                                                (to verse 2)|
e|-------0-2h3---------------------|-------0-2h3---------------------|
B|---0-3-------0--2h3p2-0-3--0-3---|---0-3-------0--2h3p2-0-3--0-3---|
G|-0-------------------------0-----|-0-------------------------0-----|
D|---------------------------------|---------------------------------|
A|---------------------------------|---------------------------------|
E|---------------------------------|---------------------------------|
Guitar 2:                                                            |
e|-----15----14--------------------|-----15----14--------------------|
B|----------------14h15p14-12-15---|----------------14h15p14-12-15---|
G|---------------------------------|---------------------------------|

 |2.                  
e|-------------------|
B|-------------------|
G|-8/9\8---6/8\6-----|
D|-------------------|
A|-------------------|
E|-------------------|
         All eyes closed 
  
Guitar 1:
e|-----------12-----------12-|-----------11-----------11-|
B|-11--11h12----11--11h12----|-11--11h12----11--11h12----|
G|---------------------------|---------------------------|
D|---------------------------|---------------------------|
Guitar 2:
e|---------------------------|---------------------------|
B|---------------------------|---------------------------|
G|---------------------------|---------------------------|
D|-2---2--------2---2--------|-6---6--------6---6--------|
A|-2---2--------2---2--------|-6---6--------6---6--------|
E|-0---0--------0---0--------|-4---4--------4---4--------|
   t i g h t l y...           

Guitar 1:
e|-11--11b(12)r11-9--9b(10)r9-|-7--7b(9)r7-6~~~~~----------|
B|----------------------------|----------------------------|
G|----------------------------|----------------------------|
D|----------------------------|----------------------------|
Guitar 2:
e|----------------------------|----------------------------|
B|----------------------------|----------------------------|
G|-8---8----------6--6--------|----------------------------|
D|-8---8----------6--6--------|-4--4-------4-4--4-4--4-4-4-|
A|-6---6----------4--4--------|-4--4-------4-4--4-4--4-4-4-|
E|----------------------------|-2--2-------2-2--2-2--2-2-2-|

Guitar 1:
e|-----------12-----------12-|-----------11-----------11-|
B|-11--11h12----11--11h12----|-11--11h12----11--11h12----|
G|---------------------------|---------------------------|
Guitar 2:
e|---------------------------|---------------------------|
B|---------------------------|---------------------------|
G|---------------------------|---------------------------|
D|-2---2--------2---2--------|-6---6--------6---6--------|
A|-2---2--------2---2--------|-6---6--------6---6--------|
E|-0---0--------0---0--------|-4---4--------4---4--------|
   Low-ly,      slowly         now I       know I

Guitar 1:
e|-11--11b(12)r11-9--9b(10)r9-|-7--7b(9)r7-6~~~~~----------|
B|----------------------------|----------------------------|
G|----------------------------|----------------------------|
Guitar 2:
e|----------------------------|----------------------------|
B|----------------------------|----------------------------|
G|-8---8----------6--6--------|----------------------------|
D|-8---8----------6--6--------|-4--4-------4-4--4-4--4-4-4-|
A|-6---6----------4--4--------|-4--4-------4-4--4-4--4-4-4-|
E|----------------------------|-2--2-------2-2--2-2--2-2-2-|
   Like where you go when you're gone

Guitar 1:
e|---------5h6---|------------------|---------5h6---|------------------|
B|-----6-8-------|-5h6p5---6--6-6---|-----6-8-------|-5h6p5---6--6-6---|
G|---7---------7-|-------7----------|---7---------7-|-------7----------|
D|-8-------------|------------------|-8-------------|------------------|
A|---------------|------------------|---------------|------------------|
E|---------------|------------------|---------------|------------------|
Guitar 2:
e|---------------|------------------|---------------|-----------------|
B|---------------|--------------6---|---------------|-------------6---|
G|---------------|----------------5-|---------------|---------------5-|
D|---------------|------------6-----|---------------|-----------6-----|
A|---------------|----------4-------|---------------|---------4-------|
E|---------------|------------------|---------------|-----------------|

Verse 3 ~ Guitar 1:
e|-----2-------------------------|-----2-------------------|
B|---0---------------------------|---0---------------------|
G|-------------------------------|-------------------------|
Guitar 2:
D|-------------------------------|-------------------------|
A|------------------------1------|------------------1------|
E|-3-----------------------------|-3-----------------------|
         Warm your hands inside my veins    I might be con-

Guitar 1:                                      (To Chorus 3)|
e|-----2-------------------------|-----2--------------------|
B|---0---------------------------|---0----------------------|
G|-------------------------------|--------------------------|
Guitar 2:
D|-------------------------------|--------------------------|
A|-------------------------------|---------------------1----|
E|-0-----------------------2-----|-3------------------------|
   ta  -  gious.                         Through oblivion I

 |3.
e|--------------|------------------------------|-----------|
B|--------------|------------------------------|-----------|
G|-8-8--8-8-8-8-|------------------------------|-8----8----|
D|-8-8--8-8-8-8-|-2--2------------6-------6----|-8----8----|
A|-6-6--6-6-6-6-|-2--2------------6-------6----|-6----6----|
E|--------------|-0--0------------4-------4----|-----------|
   we are.                 When all you know is that I dont know

e|-------------|
B|-------------|
G|8/9\8--6/8\6-|
D|-------------|
A|-------------|
E|-------------|
      Follow my

Guitar 1:
e|-----------12-----------12-|-----------11-----------11-|
B|-11--11h12----11--11h12----|-11--11h12----11--11h12----|
G|---------------------------|---------------------------|
Guitar 2:
e|---------------------------|---------------------------|
B|---------------------------|---------------------------|
G|---------------------------|---------------------------|
D|-2---2--------2---2--------|-6---6--------6---6--------|
A|-2---2--------2---2--------|-6---6--------6---6--------|
E|-0---0--------0---0--------|-4---4--------4---4--------|
   w         a        y...           

Guitar 1:
e|-11--11b(12)r11-9--9b(10)r9-|-7--7b(9)r7-6~~~~~----------|
B|----------------------------|----------------------------|
G|----------------------------|----------------------------|
Guitar 2:
e|----------------------------|----------------------------|
B|----------------------------|----------------------------|
G|-8---8----------6--6--------|----------------------------|
D|-8---8----------6--6--------|-4--4-------4-4--4-4--4-4-4-|
A|-6---6----------4--4--------|-4--4-------4-4--4-4--4-4-4-|
E|----------------------------|-2--2-------2-2--2-2--2-2-2-|

Guitar 1:
e|-----------12-----------12-|-----------11-----------11-|
B|-11--11h12----11--11h12----|-11--11h12----11--11h12----|
G|---------------------------|---------------------------|
Guitar 2:
e|---------------------------|---------------------------|
B|---------------------------|---------------------------|
G|---------------------------|---------------------------|
D|-2---2--------2---2--------|-6---6--------6---6--------|
A|-2---2--------2---2--------|-6---6--------6---6--------|
E|-0---0--------0---0--------|-4---4--------4---4--------|
   
Guitar 1:
e|-11--11b(12)r11-9--9b(10)r9-|-7--7b(9)r7-6~~~~~----------|
B|----------------------------|----------------------------|
G|----------------------------|----------------------------|
Guitar 2:
e|----------------------------|----------------------------|
B|----------------------------|----------------------------|
G|-8---8----------6--6--------|----------------------------|
D|-8---8----------6--6--------|-4--4-------4-4--4-4--4-4-4-|
A|-6---6----------4--4--------|-4--4-------4-4--4-4--4-4-4-|
E|----------------------------|-2--2-------2-2--2-2--2-2-2-|

**Guitar 1:
e|-----------12-----------12-|-----------11-----------11-|
B|-11--11h12----11--11h12----|-11--11h12----11--11h12----|
G|---------------------------|---------------------------|
**Guitar 2:
e|---------------------------|------------------------4--|
B|---------------------------|--------------4------------|
G|-3----\1------3----\1------|-6----/4-------------------|
D|---------------------------|---------------------------|
A|---------------------------|---------------------------|
E|---------------------------|---------------------------|

Guitar 1:                                                 **
e|-11--11b(12)r11-9--9b(10)r9-|-7--7b(9)r7-6~~~~~----------|
B|----------------------------|----------------------------|
G|----------------------------|----------------------------|
Guitar 2:                                                 **
e|-3--------------------------|----------------------------|
B|-----5----------------------|----------------------------|
G|-------------4-/6-\4----4h6-|-4~~~~~~~~~~3~~~~~~~~~~-----|
D|----------------------------|----------------------------|
A|----------------------------|----------------------------|
E|----------------------------|----------------------------|

Play the riffs between the "**"s until you get sick of it, guitar one
slowly getting fainter and fainter.  When you feel like ending, just
play this (VERY crunchy and muted).

e|-XXXX-X-X-X-X--X--X--X--X--|
B|-XXXX-X-X-X-X--X--X--X--X--|
G|-XXXX-X-X-X-X--X--X--X--X--|
D|-XXXX-X-X-X-X--X--X--X--X--|
A|-XXXX-X-X-X-X--X--X--X--X--|
E|-XXXX-X-X-X-X--X--X--X--X--|

And thats all of it (finally).  The rhythms may be a little off, but
hopefully you know the song well enough to figure it out (or, if you
have the CD, you can work from there).
Peace, love, and loud rock-n-roll,
Suggest correction
What's this?
You can suggest a correction to this tab. Community and Mods will review your correction and vote to approve or reject it.
comments
print report bad tab
guest
You may want to rate the tab now too:
select rating
Please do not post tabs as comments. Select "correction" instead!