Oops, an error
Loading. Please wait.

Long Gone Tab

6,899 views 3 this week
no commentswrite comment
1 2 3 4 5
excellent!
x 7
add to favorites
launch autoscroll
font size
0
reset
how to read this tab
guitar tuner
Autoscroll
slow
fast
+/-
esc
set tempo
stop
Help us to improve Ultimate-Guitar.com Take our survey!
×
Author
skalk 452
Artist: Chris Cornell
Song: Long Gone
Album: Scream

Tabbed By: Scott 
Email: windowpane71@hotmail.com


Tuning: Standard

Intro (Found at the end of track "Take Me Alive" at about 4:02)
E|------------------------------------------------------------------------------------------|
B|--17--------------17-------17----17----17------17----------------------17----17----17-----|
G|------17--17--17--------17----17----17----17-------16--16--16--14---14----14----14----14--|
D|------------------------------------------------------------------------------------------|
A|------------------------------------------------------------------------------------------|
E|------------------------------------------------------------------------------------------|


1st Verse:
F    C   G                  Dm
Baby,  I used to watch your flowers grow

         F     C       G               Dm
Now it's   raining and all your petals turn to stone

          F   C   G                   Dm
I've been praying   I turn around and see my rose

        F  C       G                Dm
But you faded, you left me now it's time to go




Pre-Chorus:
F                         C
You're like a diamond and I'm like glass

     G                Dm
Like oil and water we always clash

    F                        C      
Sometimes my confessions are hard for me

     G                            Dm 
I'll tell you now I'm setting you free



Chorus Lead:
E|---------------------------------------------------|
B|--20-20-20----------20-20-20----------20-20-20-20--|
G|-----------21-21-21----------21-21-21--------------|
D|---------------------------------------------------|
A|---------------------------------------------------|
E|---------------------------------------------------|
 |                              
E|-----------------------------------------------------|
B|-----------------------------------------------------|
G|-19-19-19-17-17-17-21--------------------------------|
D|----------------------19-19-19-19-19-19-19-19-19-19--|
A|-----------------------------------------------------|
E|-----------------------------------------------------|


Chorus:
               F            C            G              Dm 
That's why I'm long gone, long gone, you need to let me fly alone

               F          C              G              Dm 
That's why I'm long gone, long gone, you need to let me fly alone
  
               F         C               G          Dm 
That's why I'm long gone...  you need to let me fly alone

               F            C           G                   Dm  
That's why I'm long gone, long gone, it may be too late our time is done




2nd Verse:
F    C   G                     Dm
Baby   I think you've got your timing wrong


F    C  G                          Dm
Hating, exploring this while we're riding on

         F  C  G                          Dm
And it's crazy   to think that I could be reborn

       F  C      G                            Dm
If you saved me, now it's too late and you'll never know




Bridge:
F                                      C        
With broken wings (with broken wings), I can't fly (I can't fly)

    G                          Dm      
I'm gonna need you to save me, angel of mine

F                                      C
With broken wings (with broken wings), I can't fly (I can't fly)

    G                          Dm      
I'm gonna need you to save me, angel of mine



Solo: Its kinda hard to hear every note but this is the basis of it
E|--------8-----10---10-10-8-8-10--------------------------------------|
B|--5-6-5---5-8-------------------10/12-12-13-15-12-10-----12-13-15----|
G|-----------------------------------------------------12b-------------|
D|---------------------------------------------------------------------|
A|---------------------------------------------------------------------|
E|---------------------------------------------------------------------|
 |                                                     Bend the 12 a bit before you strike it.
 |
E|------------------15---------15-----------15-------15-----------------------|
B|--12--12-12h13h12------12h13-----12-12h13----13p12----12-12/10-12-13-15-17--|
G|----------------------------------------------------------------------------|
D|----------------------------------------------------------------------------|
A|----------------------------------------------------------------------------|
E|----------------------------------------------------------------------------|


Outro: Listen to it for the timing
E|--------------|
B|--------------|
G|--------6--4--|
D|--4--7--4--4--|
A|--4--5--4--2--|
E|--2--5--------|
Suggest correction
What's this?
You can suggest a correction to this tab. Community and Mods will review your correction and vote to approve or reject it.
comments
print report bad tab
guest
You may want to rate the tab now too:
select rating
Please do not post tabs as comments. Select "correction" instead!