Oops, an error
Loading. Please wait.

Moonchild Bass Tab

version 1
version 1

Whole song

  • First full Bass tab version. Taken from my Guitar ... Show more

Interactive

19 views 1 this week
no commentswrite comment
1 2 3 4 5
3 more votes to show rating
add to favorites
launch autoscroll
font size
0
reset
guitar tuner
×
Best way to learn
"Moonchild"
Autoscroll
slow
fast
+/-
esc
set tempo
stop
Author
Difficulty
  follow
intermediate
About this tab version
First full Bass tab version. Taken from my Guitar Pro tab and written for easy reading. Was this info helpful? Yes No
Title:    Moonchild 
Artist:   Chris Cornell
Album:    Euphoria Morning
Tabbed by: jjhand 

Standard Tuning


[Verse 1]  (0:11)
G|---------------------|--------------------------|--------------------------|
D|---------------------|--------------------------|--------------------------|
A|---------------------|---------------4/5--------|--------------------5-----|
E|-----------------19\-|-0-------------------7----|-0-------------5/7--------|


G|------------------------|---------------------------|----------7----7------|----------------|
D|------------------------|---------------------------|----------------------|----------------|
A|--------------4/5-------|------------7/9--0--7---0--|-5--------------------|----------------|
E|-0-----------------7----|-5--------------------0----|----------------------|-7----------0---|

                                                      2 beats
G|-----------9-7--7-6--6--|-------------------------|---------|
D|------------------------|-9-7---7-6--9-6----------|---------|
A|-0----------------------|-------------------------|---------|
E|------------------------|-------------------------|-0-------|



[Chorus 1]
G|---------------------------------|-------------------------------|
D|-9----9--9-------8----8--8-------|-------------------------------|
A|---------------------------------|-5----0-5----------------------|
E|---------------------------------|------------0---1----1-1-------|

G|-----------------------9-------|---------14------------|------------|
D|-8----8-8--7---6----6------6---|------14---------------|------------|
A|-------------------------------|-12-----------10-------|-(10)-------|
E|-------------------------------|-----------------------|------------|


[Verse 2]
G|-------------------------|-------------------------|-------------------------|
D|-------------------------|-------------------------|-------------------------|
A|--------------4/5--------|--------------------5----|--------------4/5--------|
E|-0-----------------7-----|-0-------------5/7-------|-0-----------------7-----|


G|----------------------------|-----------7---------|----------------|------------9-7---7-6--6-|
D|----------------------------|---------------------|----------------|-------------------------|
A|-------------7/9--0--7----0-|-5--------------5----|----------------|-0-----------------------|
E|-5----------------------0---|---------------------|-7----------0---|-------------------------|

                               2 beats  
G|-6-------------------------|---------|
D|---9---9-7---6-9-6---------|---------|
A|---------------------------|---------|
E|---------------------------|-0-------|


[Chorus 2]

G|---------------------------------|--------------------------------|
D|-9----9--9---9---8----8--8---8---|--------------------------------|
A|---------------------------------|-5----0--5---7---8----8-8-------|
E|---------------------------------|--------------------------------|

G|------------------------9------|--------------------------------|-------------------------------|
D|---------8---7---6----6----6---|---------14--14\5----5--5---5---|-9----9-9---9---8----8-8---8---|
A|------8------------------------|-12---12------------------------|-------------------------------|
E|-6-----------------------------|--------------------------------|-------------------------------|

G|--------------------------------|-----------------------------|---------------------------|
D|--------------------------------|-----------------------------|------------7------7-------|
A|-5----0--5---7---0----0-0---0---|---------------------7-------|----------------7------7---|
E|--------------------------------|-6----6-6---5---4--------4---|-5-------------------------|

G|------------------------------------|
D|---------7---7--7----8------7-------|
A|------7------------------7------7---|
E|-5----------------------------------|


[Guitar Solo]

G|-------------------------|---------------------------|
D|-------------------------|---------------------------|
A|--------------5----------|----------2-4---2----------|
E|-0-------5/7-------5\----|-0------------0-----3------|

G|-------------------------|----------------------------|-----------7-----------|
D|-------------------------|----------------------------|-----------------------|
A|--------------5----------|----------2-4---2--------0--|-5--------------5---7--|
E|-0-------5/7-------5\----|-0------------0-----3-------|-----------------------|


G|------------------------|------------9-7---7-6---6-|-6----\2-------------7h9----|
D|------------------------|--------------------------|--------------9-7-----------|
A|-2----5/9---------------|--------------------------|----------------------------|
E|--------------7-----6---|-5------------------------|----------------------------|


[Bridge]

G|-7----------9----------|---------------------------|-----------------------|------------------------|
D|-----------------------|---------------------------|-----------------------|------------------------|
A|-----------------------|-3----3-3---4---5----5-4---|-2---------------------|-1----1-2-3-5------5-5--|
E|-----------------------|---------------------------|------------2----------|------------------------|


G|------------------------|-----------------------|------------------------------|
D|------------------------|-----------------------|---------------------------0--|
A|-1----1-2-3-5------5-5--|-2---------------------|------------------------------|
E|------------------------|------------0----------|-3-----------3-3-3-3-3-3-3----|


[Final Chorus]
G|--------------------------------|---------------------------------|--------------------------------|
D|---------9------8----8--8---8---|---------------------------------|--------------------------------|
A|--------------------------------|-5----0--5---7---0----0--0---0---|------------------------7-------|
E|-7----7-----7-------------------|---------------------------------|-6----6--6---5---4----4-----4---|


G|---------------------------------|-----------------------------|-------------------------------|
D|--------7------------------------|-----------------------------|-------------------------------|
A|------7-----7--------------------|-----------------------------|-5----0-5---7---0----0-0---0---|
E|-5--------------0-2-3-2-3-5-3-2--|-7----7-7--7--6----6-6---6---|-------------------------------|


G|-------10-------------9-----|-----------------------|-------------------------------|
D|----------------------------|--------7--------------|-------------------------------|
A|----------------------------|------7----------------|----------------3----3---5/10--|
E|-6---6-----5--4----------4--|-5--------5-5----------|-6----6---6\0------------------|


G|---------------------|--------|-------------|-------------|-------------|-------------|
D|---------------------|--------|-------------|-------------|-------------|-------------|
A|-10---10-10-10-10-10\|--------|-7-----------|-7-----------|-7-----------|-7-----------|
E|---------------------|-3------|-------7-----|-------7-----|-------7-----|-------7-----|


[Ending]
G|--------|--------|
D|--------|--------|
A|-7------|--------|
E|--------|--------|


************************************
| Key:
| /  slide up
| \  slide down
| h  hammer-on
| p  pull-off
| x  Mute note

************************************
Suggest correction
Give kudos to tab author, rate the tab!
1 2 3 4 5
comments
print report bad tab
guest
You may want to rate the tab now too:
select rating
Wanna post a correction for this tab? Suggest correction