Oops, an error
Loading. Please wait.

Nearly Forgot My Broken Heart bass

version 1
version 1

Whole song

6,037 views 6 this week
3 commentsread comments
1 2 3 4 5
x 8
add to favorites
×
Save as Personal and add changes to this tab that will be seen only by you. Learn more ›
×
You can save this tab as Personal to edit and correct it or add notes. All changes will be seen only by you. Learn more »
launch autoscroll
font size
0
reset
guitar tuner
edit
Autoscroll
slow
fast
+/-
esc
set tempo
stop
Author
[Intro]

E|---------------------------------------------------------------------------------|
A|------------0--------0-------0------0------0------0------0-----------------------|
D|-------0/2-----2/3---------------0------0------0------0--------------------------|
G|-------------------------6-------------------------------------------------------|
x2


[Verse 1]

E|--------------------------------------------------------------------------------|
A|---------0------0------0------0------0------0-----0-----0-----------------------|
D|-----0------0---------------------0------0-----0-----0--------------------------|
G|--------------------4------4----------------------------------------------------|

E|--------------------------------------------------------------------------------|
A|---------0------0------0------0------0------0-----0-----0-----------------------|
D|-----0------0---------------------3------3------2-----2-------------------------|
G|--------------------4------4----------------------------------------------------|

E|--------------------------------------------------------------------------------|
A|---------0------0------0------0------0------0-----0-----0-----------------------|
D|-----0------0---------------------0------0--------------------------------------|
G|--------------------4------4------------------4------4--------------------------|

E|-------------------------------------------------------------------------------------|
A|---------0------0------0------0------0------0-----0-----0-----0-----0-----0-----0----|
D|-----3------3---------------------2------2------2-----2-----2-----2-----2-----2------|
G|--------------------4------4---------------------------------------------------------|
X2


[Chorus 1]

E|--------------------------------------------------------------------------------|
A|---------0------0------0------0------0------0-----0-----0-----------------------|
D|-----0------0------2------2------3------3---------------------------------------|
G|----------------------------------------------4------4--------------------------|

E|--------------------------------------------------------------------------------|
A|---------0------0------0------0------0------0-----0-----0-----------------------|
D|-----0------0---------------------3------3-----2-----2--------------------------|
G|--------------------4------4----------------------------------------------------|

E|--------------------------------------------------------------------------------|
A|---------0------0------0------0------0------0-----0-----0-----------------------|
D|-----0------0------2------2------3------3---------------------------------------|
G|----------------------------------------------4------4--------------------------|

E|------------------------------------------------------------------------------|
A|---------0------0------0------0-----------------------------------------------|
D|-----3------3------2------2---------------------------------------------------|
G|------------------------------------------------------------------------------|


[Bridge]

E|---------------------------------------------------------------------------------|
A|------------0--------0-------0------0------0------0------0-----------------------|
D|-----0/2-------2/3---------------0------0------0------0--------------------------|
G|-------------------------6-------------------------------------------------------|
x2


[Verse 2]

E|------------------------------------------------------------------------------|
A|---------0------0------0------0------0------0-----0-----0---------------------|
D|-----0------0---------------------0------0-----0-----0-------------=----------|
G|--------------------4------4--------------------------------------------------|

E|------------------------------------------------------------------------------|
A|---------0------0------0------0------0------0-----0-----0---------------------|
D|-----0------0---------------------3------3------2-----2-----------------------|
G|--------------------4------4--------------------------------------------------|

E|-------------------------------------------------------------------------------|
A|---------0------0------0------0------0------0-----0-----0----------------------|
D|-----0------0---------------------0------0-------------------------------------|
G|-------------------4------4-------------------4------4-------------------------|

E|-----------------------------------------------------------------------------------|
A|---------0------0------0------0------0------0-----0-----0-----0-----0-----0-----0--|
D|-----3------3---------------------2------2------2-----2-----2-----2-----2-----2----|
G|--------------------4------4-------------------------------------------------------|
X2


[Chorus 2]

E|------------------------------------------------------------------------------|
A|---------0------0------0------0------0------0-----0-----0---------------------|
D|-----0------0------2------2------3------3-------------------------------------|
G|----------------------------------------------4------4------------------------|

E|------------------------------------------------------------------------------|
A|---------0------0------0------0------0------0-----0-----0---------------------|
D|-----0------0---------------------3------3------2-----2-----------------------|
G|--------------------4------4--------------------------------------------------|

E|------------------------------------------------------------------------------|
A|---------0------0------0------0------0------0-----0-----0---------------------|
D|-----0------0------2------2------3------3-------------------------------------|
G|----------------------------------------------4------4------------------------|

E|------------------------------------------------------------------------------|
A|---------0------0------0------0-----------------------------------------------|
D|-----3------3------2------2---------------------------------------------------|
G|------------------------------------------------------------------------------|


[Middle 8]

E|----------------------------------------------------------------------------------------------|
A|----------------------------------------------------------------------------------------------|
D|-----2-----2-----2-----2-----3----3----3----3----3----3----3----3----2-----2-----2-----0------|
G|-------5-----5-----5------5----5----5----5----5----5----5----5----5-----6-----6-----6----4----|

E|-----------------------------------------------------------------------------------------------|
A|-----------------------------------------------------------------------------------------------|
D|----2-----2-----2-----2-----3----3----3----3----3----3----3----3----0----0----0-----0----------|
G|------5------5------5-----5----5----5----5----5----5----5----5----5----2----2----2-----2-------|

E|----------------------------------------------------------------------------------------------|
A|----------------------------------------------------------------------------------------------|
D|---0---0--------0------0---0---------0------0----0--------0-----3-----3-----2------2----------|
G|-----2---0---2-----2-----2----0---2-----2------2---0---2-----2-----2-----2-----2------2-------|

E|----------------------------------------------------------------------------------------------|
A|----------------------------------------------------------------------------------------------|
D|---0---0--------0------0---0---------0------0----0--------0-----3-----3-----2------2----------|
G|-----2---0---2-----2-----2----0---2-----2------2---0---2-----2-----2-----2-----2------2-------|


E|----------------------------------------------------------------------------------------------|
A|----------------------------------------------------------------------------------------------|
D|-----2-----2-----2-----2-----3----3----3----3----3----3----3----3----2-----2-----2-----0------|
G|-------5-----5-----5------5----5----5----5----5----5----5----5----5-----6-----6-----6----4----|

E|----------------------------------------------------------------------------------------------|
A|----------------------------------------------------------------------------------------------|
D|-----2-----2-----2-----2-----3----3----3----3----3----3----3----3----3---3---3---3---3--------|
G|-------5-----5-----5------5----5----5----5----5----5----5----5----5----5---5---5---5----------|


[Pre-Chorus]

E|-----------------------------------------------------------------------------|
A|---------0------0------0------0------0------0-----0-----0--------------------|
D|-----0------0------2------2------3------3------------------------------------|
G|----------------------------------------------4------4-----------------------|

E|-----------------------------------------------------------------------------|
A|---------0------0------0------0------0------0-----0-----0--------------------|
D|-----0------0---------------------3------3------2-----2----------------------|
G|--------------------4------4-------------------------------------------------|

E|-----------------------------------------------------------------------------|
A|---------0------0------0------0------0------0-----0-----0--------------------|
D|-----0------0------2------2------3------3------------------------------------|
G|----------------------------------------------4------4-----------------------|

E|-----------------------------------------------------------------------------|
A|---------0------0------0------0----------------------------------------------|
D|-----3------3------2------2-------2-------2-------2-------2------------------|
G|--------------------------------------5-------5-------5-------5--------------|


[Last chorus]

E|-----------------------------------------------------------------------------|
A|---------0------0------0------0------0------0-----0-----0--------------------|
D|-----0------0------2------2------3------3------------------------------------|
G|-----------------------------------------------4------4----------------------|

E|------------------------------------------------------------------------------|
A|---------0------0------0------0------0------0-----0-----0---------------------|
D|-----0------0---------------------3------3-----2-----2------------------------|
G|--------------------4------4--------------------------------------------------|

E|-----------------------------------------------------------------------------|
A|---------0------0------0------0------0------0-----0-----0--------------------|
D|-----0------0------2------2------3------3------------------------------------|
G|-----------------------------------------------4------4----------------------|

E|-----------------------------------------------------------------------------|
A|---------0------0------0------0----------------------------------------------|
D|-----3------3------2------2-------0-------0-------0-------0------------------|
G|-------------------------------------2-------2-------2-------2---------------|
Suggest correction
Creating personal tab
Creating personal tab
You can edit any tab online and save it as your Personal.

You can edit, replace or remove any tab part or add personal notes – all changes will be seen only by you.

Personal tabs can be accessed anytime from any device, even offline.
Learn more »
comments
print report bad tab
3 comments total.
0 reply
Brianposto 10 Nov 11, 2015 07:06 PM

Awesome! Just learning mandolin, and happy accident, found this tab. Not familiar with the song, I was happy to learn that most of the intro is mandolin! Thanks!

0 reply
Ryan Crane 240 Jan 16, 2016 11:17 AM

This is a bass tab an should be labeled as such

guest
You may want to rate the tab now too:
select rating
Wanna post a correction for this tab? Suggest correction