Oops, an error
Loading. Please wait.

Nearly Forgot My Broken Heart tab

5,500 views 135 this week
no commentswrite comment
1 2 3 4 5
x 8
add to favorites
×
Save as Personal and add changes to this tab that will be seen only by you. Learn more ›
×
You can save this tab as Personal to edit and correct it or add notes. All changes will be seen only by you. Learn more »
launch autoscroll
font size
0
reset
how to read this tab
guitar tuner
edit
Autoscroll
slow
fast
+/-
esc
set tempo
stop
Author
Difficulty
So this is originally played on Mandolin. Here's my rendition for guitar:


[Intro]

  Dm           A    Dm
e|-----5-----5---5-|---5---5---5---5-|
B|-3h5---5h6-------|-----------------|
G|-------------6---|-7---7---7---7---|
D|-----------------|-----------------| x2
A|-----------------|-----------------|
E|-----------------|-----------------|


[Verse]

  Dm       G        Dm                         G        F        A
e|---5---5---5---5-|---5---5---5---5-|---5---5---5---5-|---5---5---5---5-|
B|---------0---0---|-----------------|---------0---0---|-6---6---5---5---|
G|-7---7-----------|-7---7---7---7---|-7---7-----------|-----------------|
D|-----------------|-----------------|-----------------|-----------------|
A|-----------------|-----------------|-----------------|-----------------|
E|-----------------|-----------------|-----------------|-----------------|

  Dm       G        Dm       G        F        G        A
e|---5---5---5---5-|---5---5---5---5-|---5---5---5---5-|---5---5---5---5-|---5---5---5---5-|
B|---------0---0---|---------0---0---|-6---6---0---0---|-5---5---5---5---|-5---5---5---5---|
G|-7---7-----------|-7---7-----------|-----------------|-----------------|-----------------|
D|-----------------|-----------------|-----------------|-----------------|-----------------|
A|-----------------|-----------------|-----------------|-----------------|-----------------|
E|-----------------|-----------------|-----------------|-----------------|-----------------|

  Dm       G        Dm                         G        F        A
e|---5---5---5---5-|---5---5---5---5-|---5---5---5---5-|---5---5---5---5-|
B|---------0---0---|-----------------|---------0---0---|-6---6---5---5---|
G|-7---7-----------|-7---7---7---7---|-7---7-----------|-----------------|
D|-----------------|-----------------|-----------------|-----------------|
A|-----------------|-----------------|-----------------|-----------------|
E|-----------------|-----------------|-----------------|-----------------|

  Dm       G        Dm       G        F        G        A
e|---5---5---5---5-|---5---5---5---5-|---5---5---5---5-|---5---5---5---5-|
B|---------0---0---|---------0---0---|-6---6---0---0---|-5---5---5---5---|
G|-7---7-----------|-7---7-----------|-----------------|-----------------|
D|-----------------|-----------------|-----------------|-----------------|
A|-----------------|-----------------|-----------------|-----------------|
E|-----------------|-----------------|-----------------|-----------------|


[Chorus]

  Dm       A       Dm      G      Dm       G      Dm        A
e|-----1-------0-|-----1-------1-|-----1-------1-|-----1--------0------|
B|---3-------2---|---3-------3---|---3-------3---|---3--------2--------|
G|-2-------2-----|-2-------4-----|-2-------4-----|-2--------2----------|
D|---------------|---------------|---------------|---------------------|
A|---------------|---------------|---------------|---------------------|
E|---------------|---------------|---------------|---------------------|

  Dm       C#aug  F/C      G/B    Dm       A
e|-----1-------1-|-----1-------1-|-----1-------0-|
B|---3-------2---|---1-------0---|---3-------2---|
G|-2-------2-----|-2-------2-----|-2-------2-----|
D|---------------|---------------|---------------|
A|---------------|---------------|---------------|
E|---------------|---------------|---------------|


[Bridge]

  Dm           A    Dm
e|-----5-----5---5-|---5---5---5---5-|
B|-3h5---5h6-------|-----------------|
G|-------------6---|-7---7---7---7---|
D|-----------------|-----------------| x2
A|-----------------|-----------------|
E|-----------------|-----------------|


[Verse 2]

Only the chords:

Dm G | Dm | Dm G | F A | Dm G | Dm G | F G | A  


[Chorus 2]

  Dm       A       Dm      G      Dm       G      Dm        A
e|-----1-------0-|-----1-------1-|-----1-------1-|-----1--------0------|
B|---3-------2---|---3-------3---|---3-------3---|---3--------2--------|
G|-2-------2-----|-2-------4-----|-2-------4-----|-2--------2----------|
D|---------------|---------------|---------------|---------------------|
A|---------------|---------------|---------------|---------------------|
E|---------------|---------------|---------------|---------------------|

  Dm       C#aug  F/C      G/B    Dm       A
e|-----1-------1-|-----1-------1-|-----1-------0-|
B|---3-------2---|---1-------0---|---3-------2---|
G|-2-------2-----|-2-------2-----|-2-------2-----|
D|---------------|---------------|---------------|
A|---------------|---------------|---------------|
E|---------------|---------------|---------------|


[C-Part 1]

I'd suggest you to only play the chords in this part, 
as the "Mandolin" part stays the same throughout, whereas the chords change:
                              
  C                 F                 G                 A
e|---5---5---5---5-|---5---5---5---5-|---5---5---5---5-|---5---5---5---5-|
B|-----------------|-----------------|-----------------|-----------------|
G|-7---7---7---7---|-7---7---7---7---|-7---7---7---7---|-7---7---7---7---|
D|-----------------|-----------------|-----------------|-----------------|
A|-----------------|-----------------|-----------------|-----------------|
E|-----------------|-----------------|-----------------|-----------------|

  C                 F                 G                 D      C             G
e|---5---5---5---5-|---5---5---5---5-|---5---5---5---5-|---5---5---5---5---5---5-|
B|-----------------|-----------------|-----------------|-------------------------|
G|-7---7---7---7---|-7---7---7---7---|-7---7---7---7---|-7---7---7---7---7---7---|
D|-----------------|-----------------|-----------------|-------------------------|
A|-----------------|-----------------|-----------------|-------------------------|
E|-----------------|-----------------|-----------------|-------------------------|

  D      C             G    D      C             G    D      C             G
e|---5---5---5---5---5---5-|---5---5---5---5---5---5-|---5---5---5---5---5---5-|
B|-------------------------|-------------------------|-------------------------|
G|-7---7---7---7---7---7---|-7---7---7---7---7---7---|-7---7---7---7---7---7---|
D|-------------------------|-------------------------|-------------------------|
A|-------------------------|-------------------------|-------------------------|
E|-------------------------|-------------------------|-------------------------|


[Solo]

Use a fuzz effect if you have one, and if not, use distortion.

  Dm       G                Dm      G    Dm       G                F         A
e|-------------------------|------------|-------------------------|------------------|
B|-------------------------|------------|-------------------------|------------------|
G|----5b7r5b7r5b7r5b7r5b7r5|b7r5p2v\----|----5b7r5b7r5b7r5b7r5b7r5|b7r5p2v\----------|
D|-0-----------------------|------------|-------------------------|------------5-3-0-|
A|-------------------------|------------|-------------------------|----------3-------|
E|-------------------------|------------|-------------------------|------------------|

  Dm       G                Dm      G    Dm       G                F         A        C 
e|-------------------------|------------|-------------------------|------------------|------|
B|-------------------------|------------|-------------------------|------------------|------|
G|----5b7r5b7r5b7r5b7r5b7r5|b7r5p2v\----|----5b7r5b7r5b7r5b7r5b7r5|b7r5p2v\----------|------|
D|-------------------------|------------|-0-----------------------|------------5-3-0-|------|
A|-------------------------|------------|-------------------------|----------3-------|-3----|
E|-------------------------|------------|-------------------------|------------------|------|


[C-Part 2]

Just the chords:

F | G | A | C | F | G | G 


[Chorus 3]

  Dm       A        F        G        Dm       G        F        A
e|---5---5---5---5-|---5---5---5---5-|---5---5---5---5-|---5---5---5---5-|
B|---------5---5---|-6---6---0---0---|---------0---0---|-6---6---5---5---|
G|-7---7-----------|-----------------|-7---7-----------|-----------------|
D|-----------------|-----------------|-----------------|-----------------|
A|-----------------|-----------------|-----------------|-----------------|
E|-----------------|-----------------|-----------------|-----------------|

  Dm       C#aug  F/C      G/B    Dm       A      C
e|-----1-------1-|-----1-------1-|-----1-------0-|-----0-----------|
B|---3-------2---|---1-------0---|---3-------2---|---------1-------|
G|-2-------2-----|-2-------2-----|-2-------2-----|---0---0---0---0-|
D|---------------|---------------|---------------|-------------2---|
A|---------------|---------------|---------------|-3---------------|
E|---------------|---------------|---------------|-----------------|


[Chorus 4]

The solo is being played in the background.

  Dm       A       Dm      G      Dm       G      Dm        A
e|-----1-------0-|-----1-------1-|-----1-------1-|-----1--------0------|
B|---3-------2---|---3-------3---|---3-------3---|---3--------2--------|
G|-2-------2-----|-2-------4-----|-2-------4-----|-2--------2----------|
D|---------------|---------------|---------------|---------------------|
A|---------------|---------------|---------------|---------------------|
E|---------------|---------------|---------------|---------------------|

  Dm       C#aug  F/C      G/B    Dm       A
e|-----1-------1-|-----1-------1-|-----1-------0-|
B|---3-------2---|---1-------0---|---3-------2---|
G|-2-------2-----|-2-------2-----|-2-------2-----|
D|---------------|---------------|---------------|
A|---------------|---------------|---------------|
E|---------------|---------------|---------------|


[Outro]

Just the chords:

| D  C      G | D  C      G |

Repeat and fade.



************************************

| h  Hammer-on
| p  Pull-off
| r  Release
| b  Bend
| v  Vibrato

************************************

            
            
Suggest correction
Creating personal tab
Creating personal tab
You can edit any tab online and save it as your Personal.

You can edit, replace or remove any tab part or add personal notes – all changes will be seen only by you.

Personal tabs can be accessed anytime from any device, even offline.
Learn more »
comments
print report bad tab
guest
You may want to rate the tab now too:
select rating
Wanna post a correction for this tab? Suggest correction