Oops, an error
Loading. Please wait.

Pillow Of Your Bones Tab

version 2
version 2

Whole song

Interactive

1,070 views 1 this week
no commentswrite comment
1 2 3 4 5
please rate
add to favorites
launch autoscroll
font size
0
reset
how to read this tab
guitar tuner
Autoscroll
slow
fast
+/-
esc
set tempo
stop
Help us to improve Ultimate-Guitar.com Take our survey!
×

Person: Paul Dolan

song: Pillow Of Your Bones

artist: Chris Cornell

tab:
#-----------------------------------------------------------------------------#
#-- File created with Instab -
http://www.pconline.com/~smcarey/instab.html --#
#-----------------------------------------------------------------------------#

Author/Artist: Chris Cornell
Title: Pillow of Your Bones
Album: Euphoria Morning
Transcribed by: Paul Dolan
Email: Dolan414@hotmail.com

This is a version for standard tuning. It sounds to me that
a different tuning is being used but i cant be arsed to 
figure it out, i probably couldnt, anyway. 

***********  tape machine effect (digitech)

-|----------------------------------------------------------------------------
-|----------------------------------------------------------------------------
-|-----3h5p3------3h5p3--------------/5---------------------------------------
-|--55-------5-44-------4-3h4p3\1-3-----5-4-1---------------------------------
-|--------------------------------------------3-------------------------------
-|----------------------------------------------------------------------------
                                                                       
      

-|----------------------------------------------------------------------------
-|----------------------------------------------------------------------------
-|--5-5--5-x--8-8--8-x--10-10--10-x--8-8--8--x--------------------------------
-|--5-5--5-x--8-8--8-x--10-10--10-x--8-8--8--x--3x3x3-------------------------
-|--3-3--3-x--6-6--6-x---8--8---8-x--6-6--6--x--3x3x3-------------------------
-|----------------------------------------------1x1x1-------------------------
    "the embers of the saint...                                        
      

-|----------------------------------------------------------------------------
-|----------------------------------------------------------------------------
-|----------------------------------------------------------------------------
-|---9--9--9--9--9---8--8--8--8--8--------------------------------------------
-|---9--9--9--9--9---8--8--8--8--8--------------------------------------------
-|---7--7--7--7--7---6--6--6--6--6--------------------------------------------
    "colourful and falling....                                         
      

-|----------------------------------------------------------------------------
-|--------7----------7----7-------7-----------7-----7-------------------------
-|----------------------------------------------------------------------------
-|-----8----8-----7----7-------8-----8-----7-----7----------------------------
-|--6----------5-------------6----------5-------------------------------------
-|----------------------------------------------------------------------------
    "On a pillow of your bones                                         
      

-|----------------------------------------------------------------------------
-|--------11------------15------15----------15----15--------------------------
-|----------------------------------------------------------------------------
-|----11-----11-----16------16----------15-----15-----------------------------
-|--9------------14-----------------13----------------------------------------
-|----------------------------------------------------------------------------
  "..stones. Until the tide comes crawling                             
      

-|----------------------------------------------------------------------------
-|----------------------------------------------------------------------------
-|---------3----------------3-------------------------------------------------
-|--0h3h5----5-3-----0h3h5----5-3---------------------------------------------
-|---------------5----------------5-4---********------------------------------
-|----------------------------------------------------------------------------
   'backwards' riff played after second chorus.                        
      

-|----------------------6-6-6--5-5-5--6-6-6--5-5-5----------------------------
-|----------------------7-7-7--7-7-7--7-7-7--7-7-7--11-11-11--15-15--15-15----
-|----------------------8-8-8--7-7-7--8-8-8--7-7-7--11-11-11--16-16--15-15----
-|----------------------8-8-8--7-7-7--8-8-8--7-7-7--11-11-11--16-16--15-15----
-|----------------------6-6-6--5-5-5--6-6-6--5-5-5--9--9--9---14-14--13-13----
-|----------------------------------------------------------------------------
    "no lie can hide...                    
Suggest correction new What's this?
You can suggest a correction to this tab. Community and Mods will review your correction and vote to approve or reject it.
comments
We did not receive enough feedback on this tab! Please rate:
print report bad tab
1 2 3 4 5
guest
You may want to rate the tab now too:
select rating
Please do not post tabs as comments. Select "correction" instead!