Oops, an error
Loading. Please wait.

Poison Eye Tab

version 2
version 2

Whole song

972 views 1 this week
1 commentread comment
1 2 3 4 5
please rate
add to favorites
launch autoscroll
font size
0
reset
how to read this tab
guitar tuner
Autoscroll
slow
fast
+/-
esc
set tempo
stop
Help us to improve Ultimate-Guitar.com Take our survey!
×
Author
Difficulty
intermediate
-----------------------------------------------------------------------------
                          Poison Eye - Chris Cornell
-----------------------------------------------------------------------------
Tabbed by: DisappearingOne


Tuning: DGDGBd

Notation legend

| ^  bend & release 1/4 step    
| \  slide down
| ~  vibrato
| +  natural harmonic at 4th fret


Intro/verse 

d|-0-2-2--5--7--0--5^--------------------|
B|-0-2-2--5--7--0--3^----0-2-2-6-2---(2)\|
G|-0-2-2--5--7--0--------0-2-2-6-2---(2)\|
D|-0-2-2--5--7--0--------0-2-2-6-2---(2)\|
G|-0-2-2--5--7--0--------0-2-2-6-2---(2)\|
D|---------------------------------------|


Pre-chorus

d|----------------------------------|
B|---------0-2-2-6-2---(2)\---------|
G|-+-+-+-+-0-2-2-6-2---(2)\-+-+-+-+-|
D|-+-+-+-+-0-2-2-6-2---(2)\-+-+-+-+-|
G|-+-+-+-+-0-2-2-6-2---(2)\-+-+-+-+-|
D|-+-+-+-+------------------+-+-+-+-|


Chorus
 
Gtr. 1
d|-4---------------4---------------3---------------|
B|-4---------------4---------------3-------------3-|
G|-4-----------4-4-4-----------4-4-3-----------3-3-|
D|-4---4-4-4-4-4-4-4---4-4-4-4-4-4-3---3-3-3-3-3-3-|
G|-4---4-4-4-4-4-4-2---2-2-2-2-2-2-3---3-3-3-3-3-3-|
D|-------------------------------------------------|

Gtr. 2
d|-----2-1-----2-1-----2-1-----2-1-----1-0-----1-0-|
B|-------------------------------------------------|
G|-2-4-----2-4-----2-4-----2-4-----2-3-----2-3-----|
D|-------------------------------------------------|
G|-------------------------------------------------|
D|-------------------------------------------------|

Gtr. 1
d|---------------------------------------|
B|-10--------------------9---------------|
G|-10--------------------9---------------|
D|-10--------------10-10-9-----------9-9-|
G|-10--10-10-10-10-10-10-9---9-9-9-9-9-9-|
D|-10--10-10-10-10-10-10-9---9-9-9-9-9-9-|

Gtr. 2
d|-----2-1---------2-1-------2-0-----2-0-|
B|---------------------------------------|
G|-2-3-------2-3---------2-4-----2-4-----|
D|---------------------------------------|
G|---------------------------------------|
D|---------------------------------------|

Gtr. 1
d|-----------------------6-----------6-6\|
B|-11--------------------6-----------6-6\|
G|-11--------------------6-----------6-6\|
D|-11--------------11-11-6-----------6-6\|
G|-11--11-11-11-11-11-11-6---------------|
D|-11--11-11-11-11-11-11-----------------|

Gtr. 2
d|-----4-2---------4-2-------4-3-----4-3-|
B|---------------------------------------|
G|-2-3-------2-3---------3-4-----3-4-----|
D|---------------------------------------|
G|---------------------------------------|
D|---------------------------------------|

Gtr. 1
d|-4---------------4---------------3---------------|
B|-4---------------4---------------3-------------3-|
G|-4-----------4-4-4-----------4-4-3-----------3-3-|
D|-4---4-4-4-4-4-4-4---4-4-4-4-4-4-3---3-3-3-3-3-3-|
G|-4---4-4-4-4-4-4-2---2-2-2-2-2-2-3---3-3-3-3-3-3-|
D|-------------------------------------------------|

Gtr. 2
d|-----2-1-----2-1-----2-1-----2-1-----1-0-----1-0-|
B|-------------------------------------------------|
G|-2-4-----2-4-----2-4-----2-4-----2-3-----2-3-----|
D|-------------------------------------------------|
G|-------------------------------------------------|
D|-------------------------------------------------|

Gtr. 1
d|---------------------------------------|
B|-10--------------------9---------------|
G|-10--------------------9---------------|
D|-10--------------10-10-9-----------9-9-|
G|-10--10-10-10-10-10-10-9---9-9-9-9-9-9-|
D|-10--10-10-10-10-10-10-9---9-9-9-9-9-9-|

Gtr. 2
d|-----2-1---------2-1-------2-0-----2-0-|
B|---------------------------------------|
G|-2-3-------2-3---------2-4-----2-4-----|
D|---------------------------------------|
G|---------------------------------------|
D|---------------------------------------|

Gtr. 1
d|----------------------------------------------------|
B|-11--------------------6----------------------------|
G|-11--------------------6---------------6-6-6-6-6-6\-|
D|-11--------------11-11-6---6-6-6-6-6-6-6-6-6-6-6-6\-|
G|-11--11-11-11-11-11-11-6---6-6-6-6-6-6-6-6-6-6-6-6\-|
D|-11--11-11-11-11-11-11------------------------------|

Gtr. 2
d|-----4-2---------4-2-------4-3-----4-3--------------|
B|---------------------------------------5~-----------|
G|-2-3-------2-3---------3-4-----3-4------------------|
D|----------------------------------------------------|
G|----------------------------------------------------|
D|----------------------------------------------------|


=============================================================================
Suggest correction
Give kudos to tab author, rate the tab!
1 2 3 4 5
comments
print report bad tab
1 comment total.
0 reply
pearljam5181 10 wrote on July 14 2007, 02:18 pm

Thanks for the tab! Easy to play and dead on! Great Song!

guest
You may want to rate the tab now too:
select rating
Please do not post tabs as comments. Select "correction" instead!