Oops, an error
Loading. Please wait.

Poison Eye Tab

version 3
version 3

Whole song

173 views 1 this week
no commentswrite comment
1 2 3 4 5
3 more votes to show rating
add to favorites
launch autoscroll
font size
0
reset
how to read this tab
guitar tuner
Autoscroll
slow
fast
+/-
esc
set tempo
stop
Help us to improve Ultimate-Guitar.com Take our survey!
×
Author
Difficulty
novice
Chris Cornell

Poison Eye

Carry On


e|--3-----------2---3---------3-----3-----------------|
b|--3-----------3---3---------3-----3-----------------|
g|--0-2-2---0---2---0------0--0-----0-2-2---0---2-----|
d|--0-2-2---2---0---0------2--0~----0-2-2---2---2-----|
a|--2-0-0---3-------2------3--2~----2-0-0---3---0-----|
e|--3---------------3---------3~----3-----------------|

I heard the sound bite
I read your words right
I saw the light
I heard you singing
I know this song
It's my turn to write
I put this hook inside
So you won't soon forget
I got the radar
I can see so far



e|------------------|
b|3-----------------|
g|0-2-2---0---2-----|
d|0-2-2---2---2-----|
a|2-0-0---3---0-----|
e|3-----------------|

With my poison eye
Yeah my poison eye


B            A
When I look hard
A#            F
I see in the stars
E            F#
What you've done and what lies
C#
Awaiting for you

B            A
When I look down
A#           F
I see the ground
E                F#
I won't make a sound
C#        
I won't need to look at you


e|--3-----------2---3---------3-----3-----------------|
b|--3-----------3---3---------3-----3-----------------|
g|--0-2-2---0---2---0------0--0-----0-2-2---0---2-----|
d|--0-2-2---2---0---0------2--0~----0-2-2---2---2-----|
a|--2-0-0---3-------2------3--2~----2-0-0---3---0-----|
e|--3---------------3---------3~----3-----------------|

Inside the phone lines
You think you'll hide
And you'll be alright
You're in my sidelines
You'll have no time
Even to cry
I see your pain
I see my face on your fear
I got the radar
I can see so far



e|------------------|
b|3-----------------|
g|0-2-2---0---2-----|
d|0-2-2---2---2-----|
a|2-0-0---3---0-----|
e|3-----------------|

With my poison eye
Yeah my poison eye

B            A
When I look hard
A#             F
I see in the stars
E               F#
What you've done and what lies
c#
Awaiting for you

B            A
When I look down
A#           F
I see the ground
E                F#
I won't make a sound
C#        
I won't need to look at you


solo (reverse effect)
e|--3-----------2---3---------3-----3-----------------|
b|--3-----------3---3---------3-----3-----------------|
g|--0-2-2---0---2---0------0--0-----0-2-2---0---2-----|
d|--0-2-2---2---0---0------2--0~----0-2-2---2---2-----|
a|--2-0-0---3-------2------3--2~----2-0-0---3---0-----|
e|--3---------------3---------3~----3-----------------| 




B           A
I can see sparks
A#               F
Over a lake at midnight
E           F#
I see the smiles
          C#
Falling from your face

B                  A
But you're in the dark
A#           F
You're in a maze
E          F#                   C#
All you can do is sit here and wait for me

And I'm coming




e|--3-----------2---3---------3-----3-----------------|
b|--3-----------3---3---------3-----3-----------------|
g|--0-2-2---0---2---0------0--0-----0-2-2---0---2-----|
d|--0-2-2---2---0---0------2--0~----0-2-2---2---2-----|
a|--2-0-0---3-------2------3--2~----2-0-0---3---0-----|
e|--3---------------3---------3~----3-----------------|


I know the low road
I wrote the code
To break in your heart
I see the angles
I draw the cards
That burden you so
I have the sight
That follows you morning and night
I got the radar
I can see so far
With my poison eye
Yeah my poison eye
My poison eye 
Suggest correction
Give kudos to tab author, rate the tab!
1 2 3 4 5
comments
print report bad tab
guest
You may want to rate the tab now too:
select rating
Wanna post a correction for this tab? Suggest correction