Oops, an error
Loading. Please wait.

Scar On The Sky Chords

version 3
version 3

Whole song

3,378 views 1 this week
no commentswrite comment
1 2 3 4 5
2 more votes to show rating
add to favorites
launch autoscroll
font size
0
reset
transpose
0
reset
simplify chords
display chords
guitar tuner
Autoscroll
slow
fast
+/-
esc
set tempo
stop
Help us to improve Ultimate-Guitar.com Take our survey!
×
Author
-----------------------------------------------------------------------------
                             Scar On The Sky - Chris Cornell
-----------------------------------------------------------------------------
Tabbed by: HTOJ
Email: holyturdsofjesus@gmail.com

The intro is from the album track, the rest is tabbed from his live performances.

Chords:

  Am Ab C C/G D D7 Dsus4/F# E Em Em7 F Fm F7 G G* G#
|-0--x--0-0---2-2--3--------0-0--0---1-1--1--3-3--4--|
|-1--3--1-1---3-1--3--------0-0--3---1-1--4--3-3--4--|
|-2--3--0-0---2-2--2--------1-0--0---2-1--2--0-4--5--|
|-2--3--2-2---0-0--0--------2-2--2---3-3--1--0-5--6--|
|-0--1--3-x---x-x--0--------2-2--2---3-3--3--2-5--6--|
|-x--x--x-3---x-x--2--------0-0--0---1-1--1--3-3--4--|

Intro
|-0---0---------0-----1-3-0---0---0---0-----------8---8---7---7-----|
|-1---1-------0--0--1-----1---1---1---1-------7-7---8---8---8---8---|
|-0-0-0-0-0h1-----2-------0-0-0-0-0-0-0-0-5\7---7-------------------|
|-------------------------------------------------------------------|
|-------------------------------------------------------------------|
|-------------------------------------------------------------------|

Verse 1
C    E                 F             C
As I fall I leave this scar upon the sky
         E             F                  F7
A simple note for you, I’ll wait for your reply
Dsus4/F#    G         Am C/G             D7   D
And in your answer I’ll regain my will to try

Chorus
C                      Em                             F
So hover in the diving light and we will rip the night
           Fm          Am   C/G
Out of the arms of the sun, one more time
C                      D7             D          F
Close your eyes and we fly, above the clouded sky
             Fm         Am             D7   D
And over the dumbstruck world, we will run 

Verse 2
C        E                   F             C
In these hills they wash the golden grains away
       E            F             F7
To the valley under all of this I lay
Dsus4/F#      G         Am C/G         D7    D
And there you dug me up, unearthed and saved

Play Chorus

G#                   G*                     
We can rip the night out of the arms of the sun

Solo
Am / Em / Am / Em / C / D7 / G# / G

Bridge
C       E                    F            C
A blood red feather leaves a scar upon my hand
          E                F            F7
No longer scrounded like a painted bird on a fan

Play Chorus

G#                   G*                     C   Ab
We can rip the night out of the arms of the sun     x2
G#                   G*                     C
We can rip the night out of the arms of the sun
Suggest correction
Give kudos to tab author, rate the tab!
1 2 3 4 5
comments
print report bad tab
guest
You may want to rate the tab now too:
select rating
Wanna post a correction for this tab? Suggest correction