Oops, an error
Loading. Please wait.

Seasons tab

version 3
version 3

Whole song

  • This is based off the live studio/jam version and ... Show more

Interactive

1,201 views 48 this week
3 commentsread comments
1 2 3 4 5
x 6
add to favorites
×
Save as Personal and add changes to this tab that will be seen only by you. Learn more ›
×
You can save this tab as Personal to edit and correct it or add notes. All changes will be seen only by you. Learn more »
launch autoscroll
font size
0
reset
how to read this tab
guitar tuner
edit
Autoscroll
slow
fast
+/-
esc
set tempo
stop
About this tab version
This is based off the live studio/jam version and uses the correct open tuning/capo configuration. All fret numbers are the same and not in relation to the capo, 0 signifies open. Was this info helpful? Yes No
Tuning DADAAD. Capo 3 makes an open F5 chord.

[Intro]
(Intro chords are played open using any amount of strings you want to ring out.)
e|---------------------------------------------------------------------------|
B|---------------------------------------------------------------------------|
G|--------------------13/15--12--8--6----------------------------------------|
D|-13--6--12--7--10----------------------------------------------------------|
A|--------------------13/15--12--8--6----------------------------------------|
E|-13--6--12--7--10----------------------------------------------------------|

[Verse]
e|---------------------------------------------------------------------------|
B|---------------------------------------------------------------------------|
G|---0---0--0--0-------------------------------------------------------------|
D|--0---0--0--0--------------------------------------------------------------|
A|-0---5---------------------------------------------------------------------|
E|--------6--6---5-0---------------------------------------------------------|

Summer nights and long warm days
Are stolen as the old moon falls
My mirror shows another face
Another place to hide it all
Another place to hide it all

And I'm lost, behind
The words I'll never find
And I'm left behind
As seasons roll on by

Sleeping with a full moon blanket
Sand and feathers for my head
Dreams have never been the answer
And dreams have never made my bed
Dreams have never made my bed

[Chorus]
e|---------------------------------------------------------------------------|
B|---------------------------------------------------------------------------|
G|-0-5-7---------------------------------------------------------------------|
D|-------8-------------------------------------------------------------------|
A|-0-5-7---------------------------------------------------------------------|
E|-------8-------------------------------------------------------------------|

And I'm lost, behind
The words I'll never find
And I'm left behind
As seasons roll on by

[Bridge]
e|---------------------------------------------------------------------------|
B|---------------------------------------------------------------------------|
G|-0-5-------------------------------------------13/15--12--8----------------|
D|-----6-------REPEAT---7--10--13--6--12--7--10----------------0-------------|
A|-0-5-------------------------------------------13/15--12--8----------------|
E|-----6--5-0-----------7--10--13--6--12--7--10----------------0-------------|

Now I want to fly above the storm
But you can't grow feathers in the rain
And the naked floor is cold as hell
The naked floor reminds me
Oh the naked floor reminds me

[Chorus]
e|---------------------------------------------------------------------------|
B|---------------------------------------------------------------------------|
G|-0-5-7---------------------------------------------------------------------|
D|-------8-------------------------------------------------------------------|
A|-0-5-7---------------------------------------------------------------------|
E|-------8-------------------------------------------------------------------|

And I'm lost, behind
The words I'll never find
And I'm left behind
As seasons roll on by

[Bridge]

If I should be short on words
And long on things to say
Could you crawl into my world
And take me worlds away
Should I be beside myself
And not even stay

e|---------------------------------------------------------------------------|
B|---------------------------------------------------------------------------|
G|---------------------------13/15--12--8------------------------------------|
D|-7--10--13--6--12--7--10-----------------0---------------------------------|
A|---------------------------13/15--12--8------------------------------------|
E|-7--10--13--6--12--7--10-----------------0---------------------------------|

[Chorus]
e|---------------------------------------------------------------------------|
B|---------------------------------------------------------------------------|
G|---0---0--0--0-------------------------------------------------------------|
D|--0---0--0--0--------------------------------------------------------------|
A|-0---5---------------------------------------------------------------------|
E|--------6--6---5-0---------------------------------------------------------|

And I'm lost, behind
The words I'll never find
And I'm left behind
As seasons roll on by

(End with harmonic on 15th fret.)


************************************

| /  Slide up

************************************
Suggest correction
Creating personal tab
Creating personal tab
You can edit any tab online and save it as your Personal.

You can edit, replace or remove any tab part or add personal notes – all changes will be seen only by you.

Personal tabs can be accessed anytime from any device, even offline.
Learn more »
comments
print report bad tab
3 comments total.
0 reply
tabchecker 10 Jun 02, 2017 06:25 PM

Hi. Sorry, but there is no capo involved, all shapes and fret positions are wrong. Tuning is wrong.

0 reply
divadmerino211 10 Jun 09, 2017 09:16 PM

get a chromatic tuner and tune to ffcccc

0 reply
nickschaaf 130 Jun 09, 2017 11:08 PM, edited on June 10 2017, 04:42 am

Watch this video if you're confused with this...https://www.youtube.com/watch?v=64MzC44ORvU

guest
You may want to rate the tab now too:
select rating
Wanna post a correction for this tab? Suggest correction