Oops, an error
Loading. Please wait.

You Know My Name intro tab

version 1
version 1

Whole song

Interactive

16,153 views 1 this week
3 commentsread comments
1 2 3 4 5
x 6
add to favorites
×
Save as Personal and add changes to this tab that will be seen only by you. Learn more ›
×
You can save this tab as Personal to edit and correct it or add notes. All changes will be seen only by you. Learn more »
launch autoscroll
font size
0
reset
how to read this tab
guitar tuner
edit
Autoscroll
slow
fast
+/-
esc
set tempo
stop
Author
Difficulty
You Know My Name Intro
   Awesome song, props to metalgeardave for figuring out the chords


Standard tuning
EADGBe

Bm: 224432
G:  355433
E:  x79997

b: bend
r: re-bend
~: let ring
/: slide
v: vibrato

Intro

    Bm    G    E                Bm    G    E
e---2-2--3-3--7-7---------------2-2--3-3--7-7------------------------------|
B---3-3--3-3--9-9---------------3-3--3-3--9-9------------------------------|
G---4-4--4-4--9-9---------------4-4--4-4--9-9---------------11~------------|
D---4-4--5-5--9-9--9-11b12r11~--4-4--5-5--9-9--9-11b12r11-9----------------|
A---2-2--5-5--7-9---------------2-2--5-5--7-7------------------------------|
E---2-2--3-3--x-x---------------2-2--3-3--x-x------------------------------|


e---2-2--3-3--7-7~---2-2--3-3--7-7~--------------------------|
B---3-3--3-3--9-9~---3-3--3-3--9-9~--------------------------|
G---4-4--4-4--9-9~---4-4--4-4--9-9~--------------------------|
D---4-4--5-5--9-9~---4-4--5-5--9-9~--11b12r11-9/7------------|
A---2-2--5-5--7-7~---2-2--5-5--7-7~---------------9v~--------|
E---2-2--3-3--x-x~---2-2--3-3--x-x~--------------------------|


tabbed by Aaron N. (eastgolf35@earthlink.net)
any thoughts email me
Suggest correction
Creating personal tab
Creating personal tab
You can edit any tab online and save it as your Personal.

You can edit, replace or remove any tab part or add personal notes – all changes will be seen only by you.

Personal tabs can be accessed anytime from any device, even offline.
Learn more »
comments
print report bad tab
3 comments total.
0 reply
8IronAllies 64 Nov 27, 2006 08:21 AM

i screwed up the G on the tab part should be e-3-- not -3-- my bad
B-3-- -3--
G-4-- -4--
D-5-- -5--
A-5-- -5--
E-3-- -4--

0 reply
pgfan92 63 Dec 13, 2006 05:28 PM

During the third time the chords go, there's another riff:

G|-------------11-9----
D|-9-11--9-11----------

And after the chords and that riff, there's another riff, which is played by the brass section, but I tabbed it for guitar:

G|---------11-------
D|-9-11-12----12-11-

Then During the next chords, the first riff is played:

G|-------------11-9----
D|-9-11--9-11----------

And the first six notes of the riffs you do have are played in sync with the chords.

0 reply
pgfan92 63 Dec 26, 2006 11:53 AM

oh, and the riffs, you put them on the wrong strings

guest
You may want to rate the tab now too:
select rating
Wanna post a correction for this tab? Suggest correction