Oops, an error
Loading. Please wait.

You Know My Name tab

version 2
version 2

Whole song

Interactive

6,290 views 15 this week
1 commentread comment
1 2 3 4 5
x 5
add to favorites
×
Save as Personal and add changes to this tab that will be seen only by you. Learn more ›
×
You can save this tab as Personal to edit and correct it or add notes. All changes will be seen only by you. Learn more »
launch autoscroll
font size
0
reset
how to read this tab
guitar tuner
edit
Autoscroll
slow
fast
+/-
esc
set tempo
stop
Author
Difficulty
This is my second tab and my first attempt was declined, so here are the 
the way this is a great song!!! ENJOY!!!


X= PALM MUTE CHORDS

INTRO:

e------------------------------------------------------------|
b------------------------------------------------------------|
g---4---4------------1---1---------4---4-----------9---9-----|
d---4---4---5---5----2---2---------4---4---5---5---9---9-----|    2X's
a---2---2---5---5----2---2---------2---2---5---5---7---7-----|
E-----------3---3----0---0------------------3---3------------|

VERSE 1:

e-----------------------------|
b-----------------------------|
g---4---4---X---4---4---4-----|
d---4---4---X---4---4---4-----|    REPEAT ABOUT 6X's
a---2---2---X---2---2---2-----|
E-----------------------------|

IF YOU TAKE A LIFE, DO YOU KNOW WHAT YOU'LL

e-----------------------------|
b-----------------------------|
g-----------------------------|
d---5---5---X---5---5---5-----|   REPEAT ABOUT 4X's
a---5---5---X---5---5---5-----|
E---3---3---X---3---3---3-----|

GIVE? ODDS ARE YOU WON'T

e-----------------------------|
b-----------------------------|
g---7---7---X---7---7---7-----|
d---7---7---X---7---7---7-----|   REPEAT ABOUT 2X's
a---5---5---X---5---5---5-----|
E-----------------------------|

 LIKE WHAT IT IS.

 e-----------------------------|
b------------------------------|
g---4---4---X---4---4---4------|
d---4---4---X---4---4---4------|    REPEAT ABOUT 6X's
a---2---2---X---2---2---2------|
E------------------------------|

WHEN THE STORM ARRIVES, WOULD YOU BEEN SEEN WITH

e-----------------------------|
b-----------------------------|
g-----------------------------|
d---5---5---X---5---5---5-----|   REPEAT ABOUT 4X's
a---5---5---X---5---5---5-----|
E---3---3---X---3---3---3-----|

ME? BY THE MERCILESS

e-----------------------------|
b-----------------------------|
g---7---7---X---7---7---7-----|
d---7---7---X---7---7---7-----|
a---5---5---X---5---5---5-----|
E-----------------------------|

 EYES OF

e-----------------------------|
b-----------------------------|
g-----------------------------|
d---4---4---X---4---4---4-----|   REPEAT ABOUT 6X's
a---4---4---X---4---4---4-----|
E---2---2---X---2---2---2-----|

DECEIT.

e-----------------------------------------------------------------------------------|
b-----------------------------------------------------------------------------------|
g--------------------------------------------------------------------4---4---4---4--|
d---5---5---5---5---5---5---5---5---4---4---4---4---4---4---4---4---4---4---4---4---|
a---5---5---5---5---5---5---5---5---4---4---4---4---4---4---4---4---2---2---2---2---|
E---3---3---3---3---3---3---3---3---2---2---2---2---2---2---2---2-------------------|

I'VE SEEN ANGLE'S FALL FROM BLIND---

e-----------------------------------------------------|
b-----------------------------------------------------|
g---2---2---2---2-------------------------------------|
d---2---2---2---2---6---6---6---6---6---6---6---6-----|
a---0---0---0---0---6---6---6---6---6---6---6---6-----|
E--------------------4---4---4---4---4---4---4---4----|

---ING HEIGHTS...

e-----------------------------------------------------------------------------------|
b-----------------------------------------------------------------------------------|
g--------------------------------------------------------------------4---4---4---4--|
d---5---5---5---5---5---5---5---5---4---4---4---4---4---4---4---4---4---4---4---4---|
a---5---5---5---5---5---5---5---5---4---4---4---4---4---4---4---4---2---2---2---2---|
E---3---3---3---3---3---3---3---3---2---2---2---2---2---2---2---2-------------------|

BUT YOU YOURSELF ARE NOTHING SO

e-----------------------------------------------------|
b-----------------------------------------------------|
g---2---2---2---2---1---1---1---1---1---1---1---1-----|
d---2---2---2---2---2---2---2---2---2---2---2---2-----|
a---0---0---0---0---2---2---2---2---2---2---2---2-----|
E-------------------0---0---0---0---0---0---0---0-----|

DEVINE....

e-----------------------------------------|
b-----------------------------------------|
g-----------------------------------------|
d---4---4---4---4---4---4---4---4---4-----|
a---4---4---4---4---4---4---4---4---4-----|
E---2---2---2---2---2---2---2---2---2-----|

JUST NEXT IN LINE!!!

CHORUS:

e-----------------------------------------------------|
b-----------------------------------------------------|
g---4---4---4---4---4---4-----------------------------|
d---4---4---4---4---4---4---5---5---5---5---5---5-----|
a---2---2---2---2---2---2---5---5---5---5---5---5-----|
E----------------------------3---3---3---3---3---3----|

ARM YOURSELF BECAUSE NO ONE ELSE HERE WILL

e-----------------------------------------------------|
b-----------------------------------------------------|
g---1---1---1---1---1---1---1---1---1---1---1---1-----|
d---2---2---2---2---2---2---2---2---2---2---2---2-----|
a---2---2---2---2---2---2---2---2---2---2---2---2-----|
E---0---0---0---0---0---0---0---0---0---0---0---0-----|

SAVE YOU!!! THE ODDS WILL BE---

e-----------------------------------------------------|
b-----------------------------------------------------|
g---4---4---4---4---4---4-----------------------------|
d---4---4---4---4---4---4---5---5---5---5---5---5-----|
a---2---2---2---2---2---2---5---5---5---5---5---5-----|
E----------------------------3---3---3---3---3---3----|

---TRAY YOU!!!! AND I WILL RE---

e-----------------------------------------------------|
b-----------------------------------------------------|
g---9---9---9---9---9---9---9---9---9---9---9---9-----|
d---9---9---9---9---9---9---9---9---9---9---9---9-----|
a---7---7---7---7---7---7---7---7---7---7---7---7-----|
E-----------------------------------------------------|

--PLACE YOU!!!
e-----------------------------------------------------|
b-----------------------------------------------------|
g---4---4---4---4---4---4-----------------------------|
d---4---4---4---4---4---4---5---5---5---5---5---5-----|
a---2---2---2---2---2---2---5---5---5---5---5---5-----|
E----------------------------3---3---3---3---3---3----|

YOU CAN'T DENY THE PRIZE IT MAY NEVER

e-----------------------------------------------------|
b-----------------------------------------------------|
g---1---1---1---1---1---1---1---1---1---1---1---1-----|
d---2---2---2---2---2---2---2---2---2---2---2---2-----|
a---2---2---2---2---2---2---2---2---2---2---2---2-----|
E---0---0---0---0---0---0---0---0---0---0---0---0-----|

FULFILL YOU!!!

e-----------------------------------------------------|
b-----------------------------------------------------|
g-----------------------------------------------------|
d---5---5---5---5---5---5---5---5---5---5---5---5-----|
a---5---5---5---5---5---5---5---5---5---5---5---5-----|
E---3---3---3---3---3---3---3---3---3---3---3---3-----|

IT LONGS TO KILL YOU...ARE YOU WILLING

e------------------------------------------------------------------------------------|
b------------------------------------------------------------------------------------|
g---1---1---1---1---1---1---1---1---1---1---1---1---1---1---1------1-1---1-1---------|
d---2---2---2---2---2---2---2---2---2---2---2---2---2---2---2------2-2---2-2---------|
a---2---2---2---2---2---2---2---2---2---2---2---2---2---2---2------2-2---2-2---------|
E---0---0---0---0---0---0---0---0---0---0---0---0---0---0---0------0-0---0-0---------|

TO DIE? THE COLDEST BLOOD RUNS THROUGH MY VEINS...

e---------------------------|
b---------------------------|
g---4---4-----------9---9---|
d---4---4---5---5---9---9---|
a---2---2---5---5---7---7---|
E-----------3---3-----------|

YOU KNOW MY NAME!!!

VERSE 2 :

e-----------------------------|
b-----------------------------|
g---4---4---X---4---4---4-----|
d---4---4---X---4---4---4-----|    REPEAT ABOUT 6X's
a---2---2---X---2---2---2-----|
E-----------------------------|

IF YOU COME INSIDE, THINGS WILL NOT BE THE

e-----------------------------|
b-----------------------------|
g-----------------------------|
d---5---5---X---5---5---5-----|   REPEAT ABOUT 4X's
a---5---5---X---5---5---5-----|
E---3---3---X---3---3---3-----|

SAME... WHEN YOU RETURN
e-----------------------------|
b-----------------------------|
g---7---7---X---7---7---7-----|
d---7---7---X---7---7---7-----|   REPEAT ABOUT 2X's
a---5---5---X---5---5---5-----|
E-----------------------------|

TO THE LIGHT.

 e-----------------------------|
b------------------------------|
g---4---4---X---4---4---4------|
d---4---4---X---4---4---4------|    REPEAT ABOUT 6X's
a---2---2---X---2---2---2------|
E------------------------------|

AND IF YOU THINK YOU'VE WON, YOU NEVER SAW ME

e-----------------------------|
b-----------------------------|
g-----------------------------|
d---5---5---X---5---5---5-----|   REPEAT ABOUT 4X's
a---5---5---X---5---5---5-----|
E---3---3---X---3---3---3-----|

CHANGE... THE GAME THAT WE

e-----------------------------|
b-----------------------------|
g---7---7---X---7---7---7-----|
d---7---7---X---7---7---7-----|
a---5---5---X---5---5---5-----|
E-----------------------------|

HAVE BEEN

e-----------------------------|
b-----------------------------|
g-----------------------------|
d---4---4---X---4---4---4-----|   REPEAT ABOUT 6X's
a---4---4---X---4---4---4-----|
E---2---2---X---2---2---2-----|

PLAYING!!!

e-----------------------------------------------------------------------------------|
b-----------------------------------------------------------------------------------|
g--------------------------------------------------------------------4---4---4---4--|
d---5---5---5---5---5---5---5---5---4---4---4---4---4---4---4---4---4---4---4---4---|
a---5---5---5---5---5---5---5---5---4---4---4---4---4---4---4---4---2---2---2---2---|
E---3---3---3---3---3---3---3---3---2---2---2---2---2---2---2---2-------------------|

I'VE SEEN DIAMOND'S CUT THROUGH HARD---

e-----------------------------------------------------|
b-----------------------------------------------------|
g---2---2---2---2-------------------------------------|
d---2---2---2---2---6---6---6---6---6---6---6---6-----|
a---0---0---0---0---6---6---6---6---6---6---6---6-----|
E--------------------4---4---4---4---4---4---4---4----|

---ER MEN...

e-----------------------------------------------------------------------------------|
b-----------------------------------------------------------------------------------|
g--------------------------------------------------------------------4---4---4---4--|
d---5---5---5---5---5---5---5---5---4---4---4---4---4---4---4---4---4---4---4---4---|
a---5---5---5---5---5---5---5---5---4---4---4---4---4---4---4---4---2---2---2---2---|
E---3---3---3---3---3---3---3---3---2---2---2---2---2---2---2---2-------------------|

THEN YOU YOURSELF, BUT IF YOU MUST

e-----------------------------------------------------|
b-----------------------------------------------------|
g---2---2---2---2---1---1---1---1---1---1---1---1-----|
d---2---2---2---2---2---2---2---2---2---2---2---2-----|
a---0---0---0---0---2---2---2---2---2---2---2---2-----|
E-------------------0---0---0---0---0---0---0---0-----|

PRETEND....

e-----------------------------------------|
b-----------------------------------------|
g-----------------------------------------|
d---4---4---4---4---4---4---4---4---4-----|
a---4---4---4---4---4---4---4---4---4-----|
E---2---2---2---2---2---2---2---2---2-----|

YOU MAY MEET YOUR END!!!

CHORUS:

e-----------------------------------------------------|
b-----------------------------------------------------|
g---4---4---4---4---4---4-----------------------------|
d---4---4---4---4---4---4---5---5---5---5---5---5-----|
a---2---2---2---2---2---2---5---5---5---5---5---5-----|
E----------------------------3---3---3---3---3---3----|

ARM YOURSELF BECAUSE NO ONE ELSE HERE WILL

e-----------------------------------------------------|
b-----------------------------------------------------|
g---1---1---1---1---1---1---1---1---1---1---1---1-----|
d---2---2---2---2---2---2---2---2---2---2---2---2-----|
a---2---2---2---2---2---2---2---2---2---2---2---2-----|
E---0---0---0---0---0---0---0---0---0---0---0---0-----|

SAVE YOU!!! THE ODDS WILL BE---

e-----------------------------------------------------|
b-----------------------------------------------------|
g---4---4---4---4---4---4-----------------------------|
d---4---4---4---4---4---4---5---5---5---5---5---5-----|
a---2---2---2---2---2---2---5---5---5---5---5---5-----|
E----------------------------3---3---3---3---3---3----|

---TRAY YOU!!!! AND I WILL RE---

e-----------------------------------------------------|
b-----------------------------------------------------|
g---9---9---9---9---9---9---9---9---9---9---9---9-----|
d---9---9---9---9---9---9---9---9---9---9---9---9-----|
a---7---7---7---7---7---7---7---7---7---7---7---7-----|
E-----------------------------------------------------|

--PLACE YOU!!!
e-----------------------------------------------------|
b-----------------------------------------------------|
g---4---4---4---4---4---4-----------------------------|
d---4---4---4---4---4---4---5---5---5---5---5---5-----|
a---2---2---2---2---2---2---5---5---5---5---5---5-----|
E----------------------------3---3---3---3---3---3----|

YOU CAN'T DENY THE PRIZE IT MAY NEVER

e-----------------------------------------------------|
b-----------------------------------------------------|
g---1---1---1---1---1---1---1---1---1---1---1---1-----|
d---2---2---2---2---2---2---2---2---2---2---2---2-----|
a---2---2---2---2---2---2---2---2---2---2---2---2-----|
E---0---0---0---0---0---0---0---0---0---0---0---0-----|

FULFILL YOU!!!

e-----------------------------------------------------|
b-----------------------------------------------------|
g-----------------------------------------------------|
d---5---5---5---5---5---5---5---5---5---5---5---5-----|
a---5---5---5---5---5---5---5---5---5---5---5---5-----|
E---3---3---3---3---3---3---3---3---3---3---3---3-----|

IT LONGS TO KILL YOU...ARE YOU WILLING

e------------------------------------------------------------------------------------|
b------------------------------------------------------------------------------------|
g---1---1---1---1---1---1---1---1---1---1---1---1---1---1---1------1-1---1-1---------|
d---2---2---2---2---2---2---2---2---2---2---2---2---2---2---2------2-2---2-2---------|
a---2---2---2---2---2---2---2---2---2---2---2---2---2---2---2------2-2---2-2---------|
E---0---0---0---0---0---0---0---0---0---0---0---0---0---0---0------0-0---0-0---------|

TO DIE? THE COLDEST BLOOD RUNS THROUGH MY VEINS...

VERSE 3:

e-------------------------------------------------------------|
b-------------------------------------------------------------|
g-------------------------------------------------------------|
d---5---5---5---5---5---5---5---5---5---5---5---5---5---5-----|
a---5---5---5---5---5---5---5---5---5---5---5---5---5---5-----|
E---3---3---3---3---3---3---3---3---3---3---3---3---3---3-----|

TRY TO HIDE YOUR HEAD,

e-------------------------------------------------------------|
b-------------------------------------------------------------|
g---9---9---9---9---9---9---9---9---9---9---9---9---9---9-----|
d---9---9---9---9---9---9---9---9---9---9---9---9---9---9-----|
a---7---7---7---7---7---7---7---7---7---7---7---7---7---7-----|
E-------------------------------------------------------------|

FORGET HOW TO FEEL... (FORGET HOW TO FEEL!!!)

e-------------------------------------------------------------|
b-------------------------------------------------------------|
g-------------------------------------------------------------|
d---5---5---5---5---5---5---5---5---5---5---5---5---5---5-----|
a---5---5---5---5---5---5---5---5---5---5---5---5---5---5-----|
E---3---3---3---3---3---3---3---3---3---3---3---3---3---3-----|

LIFE GOES BY WITH JUST A

e-------------------------------------------------------------|
b-------------------------------------------------------------|
g---9---9---9---9---9---9---9---9---9---9---9---9---9---9-----|
d---9---9---9---9---9---9---9---9---9---9---9---9---9---9-----|
a---7---7---7---7---7---7---7---7---7---7---7---7---7---7-----|
E-------------------------------------------------------------|

SPIN OF THE WHEEL... (SPIN OF THE WHEEL!!!)

CHORUS:

e-----------------------------------------------------|
b-----------------------------------------------------|
g---4---4---4---4---4---4-----------------------------|
d---4---4---4---4---4---4---5---5---5---5---5---5-----|
a---2---2---2---2---2---2---5---5---5---5---5---5-----|
E----------------------------3---3---3---3---3---3----|

ARM YOURSELF BECAUSE NO ONE ELSE HERE WILL

e-----------------------------------------------------|
b-----------------------------------------------------|
g---1---1---1---1---1---1---1---1---1---1---1---1-----|
d---2---2---2---2---2---2---2---2---2---2---2---2-----|
a---2---2---2---2---2---2---2---2---2---2---2---2-----|
E---0---0---0---0---0---0---0---0---0---0---0---0-----|

SAVE YOU!!! THE ODDS WILL BE---

e-----------------------------------------------------|
b-----------------------------------------------------|
g---4---4---4---4---4---4-----------------------------|
d---4---4---4---4---4---4---5---5---5---5---5---5-----|
a---2---2---2---2---2---2---5---5---5---5---5---5-----|
E----------------------------3---3---3---3---3---3----|

---TRAY YOU!!!! AND I WILL RE---

e-----------------------------------------------------|
b-----------------------------------------------------|
g---9---9---9---9---9---9---9---9---9---9---9---9-----|
d---9---9---9---9---9---9---9---9---9---9---9---9-----|
a---7---7---7---7---7---7---7---7---7---7---7---7-----|
E-----------------------------------------------------|

--PLACE YOU!!!
e-----------------------------------------------------|
b-----------------------------------------------------|
g---4---4---4---4---4---4-----------------------------|
d---4---4---4---4---4---4---5---5---5---5---5---5-----|
a---2---2---2---2---2---2---5---5---5---5---5---5-----|
E----------------------------3---3---3---3---3---3----|

YOU CAN'T DENY THE PRIZE IT MAY NEVER

e-----------------------------------------------------|
b-----------------------------------------------------|
g---1---1---1---1---1---1---1---1---1---1---1---1-----|
d---2---2---2---2---2---2---2---2---2---2---2---2-----|
a---2---2---2---2---2---2---2---2---2---2---2---2-----|
E---0---0---0---0---0---0---0---0---0---0---0---0-----|

FULFILL YOU!!!

e-----------------------------------------------------|
b-----------------------------------------------------|
g-----------------------------------------------------|
d---5---5---5---5---5---5---5---5---5---5---5---5-----|
a---5---5---5---5---5---5---5---5---5---5---5---5-----|
E---3---3---3---3---3---3---3---3---3---3---3---3-----|

IT LONGS TO KILL YOU...ARE YOU WILLING

e------------------------------------------------------------------------------------|
b------------------------------------------------------------------------------------|
g---1---1---1---1---1---1---1---1---1---1---1---1---1---1---1------1-1---1-1---------|
d---2---2---2---2---2---2---2---2---2---2---2---2---2---2---2------2-2---2-2---------|
a---2---2---2---2---2---2---2---2---2---2---2---2---2---2---2------2-2---2-2---------|
E---0---0---0---0---0---0---0---0---0---0---0---0---0---0---0------0-0---0-0---------|

TO DIE? THE COLDEST BLOOD RUNS THROUGH MY VEINS...

e---------------------------------------------------------------------|
b---------------------------------------------------------------------|
g---4---4---4---4---4---4---4---4-------------------------------------|
d---4---4---4---4---4---4---4---4---5---5---5---5---5---5---5---5-----|
a---2---2---2---2---2---2---2---2---5---5---5---5---5---5---5---5-----|
E------------------------------------3---3---3---3---3---3---3---3----|

YOU KNOW MY NAME!!!!!

e-----------------------------------------------------|
b-----------------------------------------------------|
g---9---9---9---9---9---9---9---9---9---9---9---9-----|
d---9---9---9---9---9---9---9---9---9---9---9---9-----|
a---7---7---7---7---7---7---7---7---7---7---7---7-----|
E-----------------------------------------------------|

YOU KNOW MY NAME!!!

e---------------------------------------------------------------------|
b---------------------------------------------------------------------|
g---4---4---4---4---4---4---4---4-------------------------------------|
d---4---4---4---4---4---4---4---4---5---5---5---5---5---5---5---5-----|
a---2---2---2---2---2---2---2---2---5---5---5---5---5---5---5---5-----|
E------------------------------------3---3---3---3---3---3---3---3----|

YOU KNOW MY NAME!!!!!

e---------------------------|
b---------------------------|
g---4---4-----------9---9---|
d---4---4---5---5---9---9---|
a---2---2---5---5---7---7---|
E-----------3---3-----------|

YOU KNOW MY NAME!!!

WELL THERE YOU GO, PLEASE FEEL FREE TO SEND ME CORRECTIONS.

            
            
Suggest correction
Creating personal tab
Creating personal tab
You can edit any tab online and save it as your Personal.

You can edit, replace or remove any tab part or add personal notes – all changes will be seen only by you.

Personal tabs can be accessed anytime from any device, even offline.
Learn more »
comments
print report bad tab
1 comment total.
0 reply
Lt.Moore911 10 Jun 06, 2007 02:56 PM

Represented the real song well. Great job! ;)

guest
You may want to rate the tab now too:
select rating
Wanna post a correction for this tab? Suggest correction